Guitar Tabs, Chords and Lyrics
Major upgrade!! After one year development the new version of Chordie is now online! Please give feedback.


Thrill of It All   Black Sabbath

 
 --------------------------------------------------------------------------
 --------------------------------------------------------------------------
 ----------2-2-4-----------2--2-(4\2)---------2-2-4----------4-4-(4-4\2)---
 ----------2-2-4-----------2--2-(4\2)---------2-2-4----------4-4-(4-4\2)---
 -0h2h4----0-0-2--0h2h4----0--0-(2)---0h2h4---0-0-2--0h2h4---2-2-(2-2)-----
 -------2---------------2-------------------2--------------2---------------

 


 Guitar 1


 

 
 --------------------------------------------------------------------------
 ------------------------------------7/..........16------------------------
 ------------------------------------7/..........16------------------------
 ------------------------------------7/..........16------------------------
 --------------------------------------------------------------------------

 


 


 

 
 ----------------------------------------14-----14------5------5-----------
 ----------------------------------------17^(19)17^(19)-8^(10)-8^(10)------
 --------------------------------------------------------------------------
 --------------------------------------------------------------------------
 --------------------------------------------------------------------------
 --------------------------------------------------------------------------

 


 Guitar 3


 __________________________________________________________________________


 


 

 
 --------------------------------------------------------------------------
 --------------------------------------------------------------------------
 ---------2-2-4----------4-4-(4-4\2)---------2-2-4----------4-4-(4-4\2)----
 ---------2-2-4----------4-4-(4-4\2)---------2-2-4----------4-4-(4-4\2)----
 -0h2h4---0-0-2--0h2h4---2-2-(2-2)---0h2h4---0-0-2--0h2h4---2-2-(2-2)------
 -------2--------------2-------------------2--------------2----------------

 


 Guitar 1


 


 

 
 ---------------------------------------------------------------------------
 ------------------------------------7/..........16-------------------------
 ------------------------------------7/..........16-------------------------
 ------------------------------------7/..........16-------------------------
 ---------------------------------------------------------------------------

 


 Guitar 2


 


 

 
 -----14-----14------5-----5-------------14------14------5-----5-----------
 -----17^(19)17^(19)-8^(10)8^(10)--------17^(19)-17^(19)-8^(10)8^(10)------
 --------------------------------------------------------------------------
 --------------------------------------------------------------------------
 --------------------------------------------------------------------------
 --------------------------------------------------------------------------

 


 Guitar 3


 __________________________________________________________________________


 


 

 
 -7-------7-------7-------7-------7-------7-------7-10-10p7---7-10-10p7----
 -10^(12)-10^(12)-10^(12)-10^(12)-10^(12)-10^(12)----------10----------10--
 --------------------------------------------------------------------------
 --------------------------------------------------------------------------
 --------------------------------------------------------------------------
 --------------------------------------------------------------------------

 


 


 

 
 -7-10-10p7----------------------7-----------------------------------------
 ----------10p7-----------------7--10p7--------------7------7--------------
 --------------9-7-9p7--7-9^(11)-------9-7-9p7--7--9-9^(11)-9^(11)-9p7-----
 ---------------------9-----------------------9--9--------------------9----
 --------------------------------------------------------------------------
 --------------------------------------------------------------------------
 -----------------------------------------------------------------
 ------------------------7^(8)--77-----------------12-15-15p12----
 ------------------------7^(8)--77-------12h14^(16)-----------14--
 -9p7-7-9-9-(7)h9p7--7-9------9-----12h14-------------------------
 ----9-------------9----------------------------------------------
 -----------------------------------------------------------------
 --------------------------------------------------------------------------
 -12-15-15p12---12-15-15p12---12-15-15p12---12h15--12h15--12h15--12h15-----
 ------------14------------14------------14------14-----14-----14-----14---
 --------------------------------------------------------------------------
 --------------------------------------------------------------------------
 --------------------------------------------------------------------------

 


 (trill)


 

 
 ----------------------------------------7-(7)-7h10p7h10p7h10p7h10p7h10p7h-
 -12h15--12h15--12h15--12-15^(17`15~)--------------------------------------
 ------14-----14-----14----------------------------------------------------
 --------------------------------------------------------------------------
 --------------------------------------------------------------------------
 --------------------------------------------------------------------------

 


 (trill)


 

 
 -10------------------------------------------7----------------------------
 ---7-(7)-7h10p7h10p7h10p7h10p710p710p7------7-10p7----------------------7-
 --------------------------------------9^(11)------9-7-9p7-7-7------------9
 ---------------------------------------------------------9----9-9-9-9p7---
 -----------------------------------------------------------------------9--
 --------------------------------------------------------------------------
 ------
 ------

 


 -12\9-


 -12\9-


 -12\9-


 

 
 ------
 -----------------------------------------------------------------
 -----------------------------------------------------------------
 -6-5-6-8-10-12-8--------6-5-6-10-12-8--------6-5-6-10-12-8-------
 -7-6-7-9-11-13-9--------7-6-7-11-13-9--------7-6-7-11-13-9-------
 -5-4-5-7--9-11-7--------5-4-5--9-11-7--------5-4-5--9-11-7-------

 


 


 

 
 -----------------------
 -----------------------
 -6-5-6-8-10-12-8-------
 -7-6-7-9-11-13-9-------
 -5-4-5-7--9-11-7-------

 


 


 ___________________________________________________________________________


 


 

 
 ---------------------------------------------------------------------------
 ---------------------------------------------------------------------------
 -77777-6-8----77777-6-8-10\9-10\9---77777-6-8----77777-6-8-----------------
 -77777-7-9----77777-7-9-10\9-10\9---77777-7-9----77777-7-9-----------------
 -55555-7-9--0-55555-7-9--8\7--8\7-0-55555-7-9--0-55555-7-9-----------------
 -------5-7----------5-7-------------------5-7----------5-7-----------------

 


 (Guitar 2 rythm)


 


 Inclination of direction, walk the turn and twisted rift


 With the children of creation, furturistic dreams we sift.


 Clutching violently we whisper with a liquifying cry


 And the deadly final answers we are surely doomed to die.


 


 


 Won't you help me Mr. Jesus? Won't you tell me if you can,


 When you see this world we live in, do you still believe in man?


 If my songs become my freedom, and my freedom turns to gold,


 Then I'll ask the final question, is the answer bought and sold?


 


 ____________________________________________________________________________


 


 

 
 -----------------------------------------------------
 -----------------------------------------------------
 -----------------------------------------------------
 -2--0-2-4-0--------2--0-2-4-0--------0--2-0-4-2------
 ------------2--0-2------------2--0-2------------5-3--
 -----------------------------------------------------

 


 Guitar1


 

 
 ----------------------------99-99---
 ----------------------------99-99---
 -8---(xx)-8--88--8----------99-99---
 -9---(xx)-7--77--9----------88-88---
 -7---(xx)-5--55--7------------------

 


 Guitar 2 ^^up strokes


 

 
 ------------------------------------
 ----------------2h4-4-2-------------
 --------4---------------------------
 ------------------------------------
 ------------------------------------

 


 Keyboard, but a filler for Guitar 1. Helps round out the rythm!


 


 


 Well, that's my story and I'm sticking to it,


 'Cause I've got no reason to lie, yeah.


 Forget your problems that don't even exist


 And I'll show you a way to get high.


 


 Oh yeah Oh yeah Oh yeah Oh yeah


 


 So come alive you know you matter to me


 Remember freedom is not hard to find, yeah


 Time to stop all your messin' around


 Don't you think I know own mind?


 


 

 
 -------------------------------
 -------------------------------
 -------------------------------
 -------------------------------
 -9---7\4-7--9/11-11/13-9--7-4--
 -7---5\2-5--7/-9--9/11-7--5-2--

 


 


 Guitar 1 plays 2x while Guitar 2 plays the rythm


 Oh yeah Oh yea Oh yea Oh yea


 


 

 
 -------------------------------7--------------------------------------------
 -10^(12`10)-------------------7-10p7----------------------------------------
 ------------9^(11`9~)-7-9^(11)------9-7-9p7--7-------7---------------7~-----
 -------------------------------------------9--9-9p7-7--9-9-7-9p7--7-9---9---
 ---------------------------------------------------9------------9-----------
 ----------------------------------------------------------------------------

 


 Guitar 1 Lead


 


 

 
 -14-16^(18-18-18-18-18)-16p14-14-16-----------------------------------------
 -------------------------------------10p7-----------------------------------
 ---------------------------------------------7-9-9^(11)-7-------------------
 -----------------------------------------9~-9-------------------------------
 ----------------------------------------------------------9~----------------
 ----------------------------------------------------------------------------
 --------------------------
 --------------------------
 -8-5-8-8-10-13-8----------
 -7-6-7-9-11-14-9----------
 -5-4-5-7--9-12-7----------

 


 Guitar 2 rythm plays 2x with above lead


 


 Why can't you believe, it's right here to be seen?


 Do you always have to be told, yeah


 For you have been taught, that if your mind has been bought


 Life's entire answer was sold.


 


 Oh yeah Oh yeah Oh yeah Oh yeah


 


 

 
 ----------------------------------------------------------------------------
 ----------------------------9~----------------------------------------------
 -8-9-11~-9-11-9p8h9---8-9-11---11-9-8-9-----8h9h11-8h9h11-8h9h11-9-8h9p8----
 -------------------9~------------------9-9~-----------------------------9~--
 ----------------------------------------------------------------------------
 ----------------------------------------------------------------------------
 ----------------------------------------------------------------------------
 ----------------------9~--14^(16-16-16-16-16-16-16`)14-12-12~-12-12~--------
 -8h9h11-8h9h11-8h9h11-------------------------------------------------------
 ----------------------------------------------------------------------------
 ----------------------------------------------------------------------------
 ----------------------------------------------------------------------------
 -15^(17)-15-12h15p12---12--------15--------15-------------------12-----------
 --------------------15----14^(16)---14^(16)--15p12--14-12-14^(16)---14-12-12-
 --------------------------------------------------14-------------------------
 -----------------------------------------------------------------------------
 -----------------------------------------------------------------------------
 -----------------------------------------------------------------------------

 


 


 

 
 -------------------------------------------------------------15^(17)-15^(17)
 -14-14^(16`14)-12-14^(16`14)-12-14^(16)-14^(16`14)-12-12--12----------------
 ----------------------------------------------------------------------------
 ----------------------------------------------------------------------------
 ----------------------------------------------------------------------------
 ----------------------------------------------------------------------------
 -15^(17)-15p12------------------------
 --------------15p12--12-14^(16)-12----
 -------------------14-----------------
 --------------------------------------
 --------------------------------------

 


 


 At the end of the fade, you can hear (listen closely!) the band doing


 this to the tune below:


 


 

 
 ----------------------------------------
 ----------------------------------------
 ------------------8---------------------
 ------------7-7h9---9-7-----------------
 -7--7--9-10-------------9-7-------------


Important: The song above is NOT stored on the Chordie server. The original song is hosted at www.xguitar.com. Chordie works as a search engine and provides on-the-fly formatting. Chordie does not index songs against artists'/composers' will. To remove this song please click here.

This song is displayed as text-only. Transposing and tuning is only available for chordpro-songs.
Rate #1 of 2 versions

Login - add to songbook

SHARE PAGE  




You need to log in to post comments