Guitar Tabs, Chords and Lyrics
Major upgrade!! After one year development the new version of Chordie is now online! Please give feedback.


Back Street Kids   Black Sabbath

 
 --------------------------------------------------------------------------------------------------
 ----------------------------------------------12~---------------------------------------------12~-
 ----------------------------------------------12~---------------------------------------------12~-
 ----------------------------------------------12~---------------------------------------------12~-
 -7-5h7-7-7-7-7-7-5h7-7-7-7-7-7-5h7-7-7-77-7-7-----7-5h7-7-7-7-7-7-5h7-7-7-7-7-7-5h7-7-7-7-7-7-----
 -0-0-0-0-0-0-0-0-0-0-0-0-0-0-0-0-0-0-0-00-0-0-----0-0-0-0-0-0-0-0-0-0-0-0-0-0-0-0-0-0-0-0-0-0-----

 


 (Guitar 1)


 


 

 
 ------------------------------------------------------------------------------
 ------------------------------------------------------------------------------
 -9~~~~~~~~~~~~~~-------------------9\11------7-9~~~~~~~~~~~~------------------
 ------------------------------------------------------------------------------
 -7~~~~~~~~~~~~~~-------------------10\9------5-7~~~~~~~~~~~~------------------
 ------------------------------------------------------------------------------

 


 (Guitar 2)


 


 

 
 --------------------------------------------------------------------------------------------------
 ----------------------------------------------12~---------------------------------------------12~-
 ----------------------------------------------12~---------------------------------------------12~-
 ----------------------------------------------12~---------------------------------------------12~-
 -7-5h7-7-7-7-7-7-5h7-7-7-7-7-7-5h7-7-7-77-7-7-----7-5h7-7-7-7-7-7-5h7-7-7-7-7-7-5h7-7-7-7-7-7-----
 -0-0-0-0-0-0-0-0-0-0-0-0-0-0-0-0-0-0-0-00-0-0-----0-0-0-0-0-0-0-0-0-0-0-0-0-0-0-0-0-0-0-0-0-0-----

 


 (Guitar 1)


 


 

 
 ------------------------------------------------------------------------------
 ------------------------------------------------------------------------------
 --7-9-11-7~~~~~~~~~~~~~~~----------6------7/9-12-9~~~~~~~~~~~~~~~~~~~~~-------
 ------------------------------------------------------------------------------
 --5-7-9--5~~~~~~~~~~~~~~~----------4------5/7-10-7~~~~~~~~~~~~~~~~~~~~~-------
 ------------------------------------------------------------------------------

 


 (Guitar 2)


 E A D\C#


 

 
 --------------------------------------------------
 --------------------------------------------------
 --------------------------------------------------
 --------------------------------------9------7\6--
 ---------7--------------------7-------7---7--5\4--
 --7/9~~~---9-8-7~~--7--8--9~~---9-8-7-----5-------

 


 (Guitar 1)


 


 

 
 --------------------------------------------------------------------------------------------------
 ----------------------------------------------12~---------------------------------------------12~-
 ----------------------------------------------12~---------------------------------------------12~-
 ----------------------------------------------12~---------------------------------------------12~-
 -7-5h7-7-7-7-7-7-5h7-7-7-7-7-7-5h7-7-7-77-7-7-----7-5h7-7-7-7-7-7-5h7-7-7-7-7-7-5h7-7-7-7-7-7-----
 -0-0-0-0-0-0-0-0-0-0-0-0-0-0-0-0-0-0-0-00-0-0-----0-0-0-0-0-0-0-0-0-0-0-0-0-0-0-0-0-0-0-0-0-0-----

 


 (Guitar 1)


 


 

 
 ------------------------------------------------------------------------------
 ------------------------------------------------------------------------------
 -9~~~~~~~~~~~~~~-------------------9\11------7-9~~~~~~~~~~~~------------------
 ------------------------------------------------------------------------------
 -7~~~~~~~~~~~~~~-------------------10\9------5-7~~~~~~~~~~~~------------------
 ------------------------------------------------------------------------------

 


 (Guitar 2)


 


 

 
 --------------------------------------------------------------------------------------------------
 ----------------------------------------------12~---------------------------------------------12~-
 ----------------------------------------------12~---------------------------------------------12~-
 ----------------------------------------------12~---------------------------------------------12~-
 -7-5h7-7-7-7-7-7-5h7-7-7-7-7-7-5h7-7-7-77-7-7-----7-5h7-7-7-7-7-7-5h7-7-7-7-7-7-5h7-7-7-7-7-7-----
 -0-0-0-0-0-0-0-0-0-0-0-0-0-0-0-0-0-0-0-00-0-0-----0-0-0-0-0-0-0-0-0-0-0-0-0-0-0-0-0-0-0-0-0-0-----

 


 I'm just another back street kid


 


 

 
 --------------------------------------------------------------------------------------------------
 ----------------------------------------------12~---------------------------------------------12~-
 ----------------------------------------------12~---------------------------------------------12~-
 ----------------------------------------------12~---------------------------------------------12~-
 -7-5h7-7-7-7-7-7-5h7-7-7-7-7-7-5h7-7-7-77-7-7-----7-5h7-7-7-7-7-7-5h7-7-7-7-7-7-5h7-7-7-7-7-7-----
 -0-0-0-0-0-0-0-0-0-0-0-0-0-0-0-0-0-0-0-00-0-0-----0-0-0-0-0-0-0-0-0-0-0-0-0-0-0-0-0-0-0-0-0-0-----

 


 Rock and Roll music is the only thing I really dig.


 


 

 
 --------------------------------------------------------------------------------------------------
 ----------------------------------------------12~---------------------------------------------12~-
 ----------------------------------------------12~---------------------------------------------12~-
 ----------------------------------------------12~---------------------------------------------12~-
 -7-5h7-7-7-7-7-7-5h7-7-7-7-7-7-5h7-7-7-77-7-7-----7-5h7-7-7-7-7-7-5h7-7-7-7-7-7-5h7-7-7-7-7-7-----
 -0-0-0-0-0-0-0-0-0-0-0-0-0-0-0-0-0-0-0-00-0-0-----0-0-0-0-0-0-0-0-0-0-0-0-0-0-0-0-0-0-0-0-0-0-----

 


 Can't stop the music flowin' 'round inside my head


 


 

 
 --------------------------------------------------------------------------------------------------
 ----------------------------------------------12~---------------------------------------------12~-
 ----------------------------------------------12~---------------------------------------------12~-
 ----------------------------------------------12~---------------------------------------------12~-
 -7-5h7-7-7-7-7-7-5h7-7-7-7-7-7-5h7-7-7-77-7-7-----7-5h7-7-7-7-7-7-5h7-7-7-7-7-7-5h7-7-7-7-7-7-----
 -0-0-0-0-0-0-0-0-0-0-0-0-0-0-0-0-0-0-0-00-0-0-----0-0-0-0-0-0-0-0-0-0-0-0-0-0-0-0-0-0-0-0-0-0-----

 


 I'm a rock and roll soldier gonna play it until I'm dead.


 


 CHOURSE


 E A D\C#


 

 
 --------------------------------------------------
 --------------------------------------------------
 --------------------------------------------------
 --------------------------------------9------7\6--
 ---------7--------------------7-------7---7--5\4--
 --7/9~~~---9-8-7~~--7--8--9~~---9-8-7-----5-------

 


 Nobody I know will ever take my rock and roll away from me


 


 

 
 --------------------------------------------------------------------------------------------------
 ----------------------------------------------12~---------------------------------------------12~-
 ----------------------------------------------12~---------------------------------------------12~-
 ----------------------------------------------12~---------------------------------------------12~-
 -7-5h7-7-7-7-7-7-5h7-7-7-7-7-7-5h7-7-7-77-7-7-----7-5h7-7-7-7-7-7-5h7-7-7-7-7-7-5h7-7-7-7-7-7-----
 -0-0-0-0-0-0-0-0-0-0-0-0-0-0-0-0-0-0-0-00-0-0-----0-0-0-0-0-0-0-0-0-0-0-0-0-0-0-0-0-0-0-0-0-0-----

 


 


 

 
 --------------------------------------------------------------------------------------------------
 ----------------------------------------------12~---------------------------------------------12~-
 ----------------------------------------------12~---------------------------------------------12~-
 ----------------------------------------------12~---------------------------------------------12~-
 -7-5h7-7-7-7-7-7-5h7-7-7-7-7-7-5h7-7-7-77-7-7-----7-5h7-7-7-7-7-7-5h7-7-7-7-7-7-5h7-7-7-7-7-7-----
 -0-0-0-0-0-0-0-0-0-0-0-0-0-0-0-0-0-0-0-00-0-0-----0-0-0-0-0-0-0-0-0-0-0-0-0-0-0-0-0-0-0-0-0-0-----

 


 Sittin' in the back seat, closed inside a limousine


 


 

 
 --------------------------------------------------------------------------------------------------
 ----------------------------------------------12~---------------------------------------------12~-
 ----------------------------------------------12~---------------------------------------------12~-
 ----------------------------------------------12~---------------------------------------------12~-
 -7-5h7-7-7-7-7-7-5h7-7-7-7-7-7-5h7-7-7-77-7-7-----7-5h7-7-7-7-7-7-5h7-7-7-7-7-7-5h7-7-7-7-7-7-----
 -0-0-0-0-0-0-0-0-0-0-0-0-0-0-0-0-0-0-0-00-0-0-----0-0-0-0-0-0-0-0-0-0-0-0-0-0-0-0-0-0-0-0-0-0-----

 


 Getting in a taxi, can't remember where I've been


 


 

 
 --------------------------------------------------------------------------------------------------
 ----------------------------------------------12~---------------------------------------------12~-
 ----------------------------------------------12~---------------------------------------------12~-
 ----------------------------------------------12~---------------------------------------------12~-
 -7-5h7-7-7-7-7-7-5h7-7-7-7-7-7-5h7-7-7-77-7-7-----7-5h7-7-7-7-7-7-5h7-7-7-7-7-7-5h7-7-7-7-7-7-----
 -0-0-0-0-0-0-0-0-0-0-0-0-0-0-0-0-0-0-0-00-0-0-----0-0-0-0-0-0-0-0-0-0-0-0-0-0-0-0-0-0-0-0-0-0-----

 


 Playin' my music sittin' in my hotel room


 


 

 
 --------------------------------------------------------------------------------------------------
 ----------------------------------------------12~---------------------------------------------12~-
 ----------------------------------------------12~---------------------------------------------12~-
 ----------------------------------------------12~---------------------------------------------12~-
 -7-5h7-7-7-7-7-7-5h7-7-7-7-7-7-5h7-7-7-77-7-7-----7-5h7-7-7-7-7-7-5h7-7-7-7-7-7-5h7-7-7-7-7-7-----
 -0-0-0-0-0-0-0-0-0-0-0-0-0-0-0-0-0-0-0-00-0-0-----0-0-0-0-0-0-0-0-0-0-0-0-0-0-0-0-0-0-0-0-0-0-----

 


 Writtin' 'bout the stars and thinkin' 'bout the hand of doom.


 


 CHOURSE


 E A D\C#


 

 
 --------------------------------------------------
 --------------------------------------------------
 --------------------------------------------------
 --------------------------------------9------7\6--
 ---------7--------------------7-------7---7--5\4--
 --7/9~~~---9-8-7~~--7--8--9~~---9-8-7-----5-------

 


 Nobody I know will ever take my rock and roll away from me


 


 BRIDGE (1:46)


 


 

 
 -2-2--7--9\(5)--7-7--7-7--7-7--7\(2)---22-2--7--9\(5)--7-7--7-7--7-7--7\(2)--
 -3-3--8-10\(6)--8-8--8-8--8-8--8\(3)---33-3--8-10\(6)--8-8--8-8--8-8--8\(3)--
 -2-2--7--9\(5)--7-7--7-7--7-7--7\(2)---22-2--7--9\(5)--7-7--7-7--7-7--7\(2)--
 -0-0--0--0------0-0--0-0--0-0--0-------00-0--0--0------0-0--0-0--0-0--0------
 -----------------------------------------------------------------------------
 -----------------------------------------------------------------------------

 


 ([d]Gu[u]ita[d]r 1[d])[d] [u] [d] [u] [d] [u] [d] [d] [u] [d] [d] [d] [u] [d] [u] [d] [u] [d]


 


 

 
 -------------------------------------------------------------------------------
 -------------------------------------------------------------------------------
 -11-11-----------------------------------11-11---------------------------------
 -12-12-12-14\(11)-12-12--12-12--12\(9)---12-12-12-14\(11)-12-12--12-12--12\(9)-
 -12-12-10-12\-(9)-10-10--10-10--10\(7)---12-12-10-12\-(9)-10-10--10-10--10\(7)-
 -10-10-----------------------------------10-10---------------------------------

 


 (Guitar 2)


 


 

 
 -2-2--7--9\(5)--7-7--7-7--7-7--7\(2)---22-2--7--9\(5)--7-7--7-7--7-7--7\(2)--
 -3-3--8-10\(6)--8-8--8-8--8-8--8\(3)---33-3--8-10\(6)--8-8--8-8--8-8--8\(3)--
 -2-2--7--9\(5)--7-7--7-7--7-7--7\(2)---22-2--7--9\(5)--7-7--7-7--7-7--7\(2)--
 -0-0--0--0------0-0--0-0--0-0--0-------00-0--0--0------0-0--0-0--0-0--0------
 -----------------------------------------------------------------------------
 -----------------------------------------------------------------------------

 


 ([d]Gu[u]ita[d]r 1[d])[d] [u] [d] [u] [d] [u] [d] [d] [u] [d] [d] [d] [u] [d] [u] [d] [u] [d]


 


 

 
 -------------------------------------------------------------------------------
 -------------------------------------------------------------------------------
 -11-11-----------------------------------11-11---------------------------------
 -12-12-12-14\(11)-12-12--12-12--12\(9)---12-12-12-14\(11)-12-12--12-12--12\(9)-
 -12-12-10-12\-(9)-10-10--10-10--10\(7)---12-12-10-12\-(9)-10-10--10-10--10\(7)-
 -10-10-----------------------------------10-10---------------------------------

 


 (Guitar 2)


 


 

 
 ----------------------------------------------------------
 ----------------------------------------------------------
 ----------------------------------------------------------
 -5/7--8\7-(7\5)-----5--4--5---5/7--8\7-((7\5)-----5--4--5-
 -3/5--6\5-(5\3)-----3--2--3---3/5--6\5-((5\3)-----3--2--3-
 --------------(2)/5-------------------------(2)/5---------

 


 Living life comes easy if you know which way you're going


 


 

 
 ----------------------------------------------------------
 ----------------------------------------------------------
 ----------------------------------------------------------
 -5/7--8\7-(7\5)-----5--4--5---5/7--8\7-((7\5)-----5--4--5-
 -3/5--6\5-(5\3)-----3--2--3---3/5--6\5-((5\3)-----3--2--3-
 --------------(2)/5-------------------------(2)/5---------

 


 You've got to see yourself in others eyes; suprise!


 


 

 
 ----------------------------------------------------------
 ----------------------------------------------------------
 ----------------------------------------------------------
 -5/7--8\7-(7\5)-----5--4--5---5/7--8\7-((7\5)-----5--4--5-
 -3/5--6\5-(5\3)-----3--2--3---3/5--6\5-((5\3)-----3--2--3-
 --------------(2)/5-------------------------(2)/5---------

 


 Living like I want to don't come easy 'cause I'm trying


 


 

 
 ----------------------------------------------------------
 ----------------------------------------------------------
 ----------------------------------------------------------
 -5/7--8\7-(7\5)-----5--4--5---5/7--8\7-((7\5)-----5--4--5-
 -3/5--6\5-(5\3)-----3--2--3---3/5--6\5-((5\3)-----3--2--3-
 --------------(2)/5-------------------------(2)/5---------

 


 Sorting out what's true and what are lies; it's wise.


 


 

 
 -2-2--7--9\(5)--7-7--7-7--7-7--7\(2)---22-2--7--9\(5)--7-7--7-7--7-7--7\(2)--
 -3-3--8-10\(6)--8-8--8-8--8-8--8\(3)---33-3--8-10\(6)--8-8--8-8--8-8--8\(3)--
 -2-2--7--9\(5)--7-7--7-7--7-7--7\(2)---22-2--7--9\(5)--7-7--7-7--7-7--7\(2)--
 -0-0--0--0------0-0--0-0--0-0--0-------00-0--0--0------0-0--0-0--0-0--0------
 -----------------------------------------------------------------------------
 -----------------------------------------------------------------------------

 


 ([d]Gu[u]ita[d]r 1[d])[d] [u] [d] [u] [d] [u] [d] [d] [u] [d] [d] [d] [u] [d] [u] [d] [u] [d]


 


 

 
 -------------------------------------------------------------------------------
 -------------------------------------------------------------------------------
 -11-11-----------------------------------11-11---------------------------------
 -12-12-12-14\(11)-12-12--12-12--12\(9)---12-12-12-14\(11)-12-12--12-12--12\(9)-
 -12-12-10-12\-(9)-10-10--10-10--10\(7)---12-12-10-12\-(9)-10-10--10-10--10\(7)-
 -10-10-----------------------------------10-10---------------------------------

 


 (Guitar 2)


 


 

 
 -2-2--7--9\(5)--7-7--7-7--7-7--7\(2)---22-2--7--9\(5)--7-7--7-7--7-7--7\(2)--
 -3-3--8-10\(6)--8-8--8-8--8-8--8\(3)---33-3--8-10\(6)--8-8--8-8--8-8--8\(3)--
 -2-2--7--9\(5)--7-7--7-7--7-7--7\(2)---22-2--7--9\(5)--7-7--7-7--7-7--7\(2)--
 -0-0--0--0------0-0--0-0--0-0--0-------00-0--0--0------0-0--0-0--0-0--0------
 -----------------------------------------------------------------------------
 -----------------------------------------------------------------------------

 


 ([d]Gu[u]ita[d]r 1[d])[d] [u] [d] [u] [d] [u] [d] [d] [u] [d] [d] [d] [u] [d] [u] [d] [u] [d]


 


 

 
 -------------------------------------------------------------------------------
 -------------------------------------------------------------------------------
 -11-11-----------------------------------11-11---------------------------------
 -12-12-12-14\(11)-12-12--12-12--12\(9)---12-12-12-14\(11)-12-12--12-12--12\(9)-
 -12-12-10-12\-(9)-10-10--10-10--10\(7)---12-12-10-12\-(9)-10-10--10-10--10\(7)-
 -10-10-----------------------------------10-10---------------------------------

 


 (Guitar 2)


 


 LEAD (2:43)


 

 
 ------------------------------------------------------------------------------
 -----------------------------------------------------9------------------------
 ------9^(11)-7-9~~~~~~~-9-10p9p7-10p9p7--10p9p7-10p9p7--7~~~~~~~--------------
 ------------------------------------------------------------------------------
 -5~~--------------------------------------------------------------------------
 ------------------------------------------------------------------------------
 ------------------------------------
 ------------------------------------
 ------------------------------------
 -7--5-------7-x-12--5-4--7----------
 -5--3----3--5-x-10--3-2--5----------
 ------3/5---------------------------

 


 (Background rhythm adapted for guitar. Listen to the song..you'll see how it fits))


 


 

 
 -13^(15)-13-10-13p10-------10-------------------------------------------------
 --------------------13^(15)--13p10--------10~~~~-13-13-10^(12)-13-10~~~~------
 ----------------------------------12^(144)------------------------------------
 ------------------------------------------------------------------------------
 ------------------------------------------------------------------------------
 ------------------------------------------------------------------------------
 ---------------------------------13~~~-118^(20)-18-15-------14-15-17----------
 -13-13-10^(12)-13-10~~~~-10-13-15--------------------18^(20)--------15\(12)---
 ------------------------------------------------------------------------------
 ------------------------------------------------------------------------------
 ------------------------------------------------------------------------------
 ------------------------------------------------------------------------------
 ----------10--------13-10-----------------------------------------------------
 --------10--13p10-13------13-13p10--------13-13p10--------10~~~~--------------
 -12^(14)--------------------------12^(144)--------12-10-12--------------------
 ------------------------------------------------------------------------------
 ------------------------------------------------------------------------------
 ------------------------------------------------------------------------------
 ------------------------------------
 ------------------------------------
 ------------------------------------
 -7--5-------7-x-12--5-4--7----------
 -5--3----3--5-x-10--3-2--5----------
 ------3/5---------------------------

 


 (Background rhythm >> only played twice, then keyboards to end of lead)


 


 

 
 --------------------------------------------------------------------------------------------------
 ----------------------------------------------12~---------------------------------------------12~-
 ----------------------------------------------12~---------------------------------------------12~-
 ----------------------------------------------12~---------------------------------------------12~-
 -7-5h7-7-7-7-7-7-5h7-7-7-7-7-7-5h7-7-7-77-7-7-----7-5h7-7-7-7-7-7-5h7-7-7-7-7-7-5h7-7-7-7-7-7-----
 -0-0-0-0-0-0-0-0-0-0-0-0-0-0-0-0-0-0-0-00-0-0-----0-0-0-0-0-0-0-0-0-0-0-0-0-0-0-0-0-0-0-0-0-0-----

 


 


 

 
 --------------------------------------------------------------------------------------------------
 ----------------------------------------------12~---------------------------------------------12~-
 ----------------------------------------------12~---------------------------------------------12~-
 ----------------------------------------------12~---------------------------------------------12~-
 -7-5h7-7-7-7-7-7-5h7-7-7-7-7-7-5h7-7-7-77-7-7-----7-5h7-7-7-7-7-7-5h7-7-7-7-7-7-5h7-7-7-7-7-7-----
 -0-0-0-0-0-0-0-0-0-0-0-0-0-0-0-0-0-0-0-00-0-0-----0-0-0-0-0-0-0-0-0-0-0-0-0-0-0-0-0-0-0-0-0-0-----

 


 Brought up in the back streets, living wit the salt of the land


 


 

 
 --------------------------------------------------------------------------------------------------
 ----------------------------------------------12~---------------------------------------------12~-
 ----------------------------------------------12~---------------------------------------------12~-
 ----------------------------------------------12~---------------------------------------------12~-
 -7-5h7-7-7-7-7-7-5h7-7-7-7-7-7-5h7-7-7-77-7-7-----7-5h7-7-7-7-7-7-5h7-7-7-7-7-7-5h7-7-7-7-7-7-----
 -0-0-0-0-0-0-0-0-0-0-0-0-0-0-0-0-0-0-0-00-0-0-----0-0-0-0-0-0-0-0-0-0-0-0-0-0-0-0-0-0-0-0-0-0-----

 


 Seems that now my music's payin' off my tax demands


 


 

 
 --------------------------------------------------------------------------------------------------
 ----------------------------------------------12~---------------------------------------------12~-
 ----------------------------------------------12~---------------------------------------------12~-
 ----------------------------------------------12~---------------------------------------------12~-
 -7-5h7-7-7-7-7-7-5h7-7-7-7-7-7-5h7-7-7-77-7-7-----7-5h7-7-7-7-7-7-5h7-7-7-7-7-7-5h7-7-7-7-7-7-----
 -0-0-0-0-0-0-0-0-0-0-0-0-0-0-0-0-0-0-0-00-0-0-----0-0-0-0-0-0-0-0-0-0-0-0-0-0-0-0-0-0-0-0-0-0-----

 


 So listin' to the music flowin' till ya get it just right


 


 

 
 --------------------------------------------------------------------------------------------------
 ----------------------------------------------12~---------------------------------------------12~-
 ----------------------------------------------12~---------------------------------------------12~-
 ----------------------------------------------12~---------------------------------------------12~-
 -7-5h7-7-7-7-7-7-5h7-7-7-7-7-7-5h7-7-7-77-7-7-----7-5h7-7-7-7-7-7-5h7-7-7-7-7-7-5h7-7-7-7-7-7-----
 -0-0-0-0-0-0-0-0-0-0-0-0-0-0-0-0-0-0-0-00-0-0-----0-0-0-0-0-0-0-0-0-0-0-0-0-0-0-0-0-0-0-0-0-0-----

 


 'Cause I'm a back street rocker and I will be 'till the day I die


 


 CHOURSE


 E A D\C#


 

 
 --------------------------------------------------
 --------------------------------------------------
 --------------------------------------------------
 --------------------------------------9------7\6--
 ---------7--------------------7-------7---7--5\4--
 --7/9~~~---9-8-7~~--7--8--9~~---9-8-7-----5-------


Important: The song above is NOT stored on the Chordie server. The original song is hosted at www.xguitar.com. Chordie works as a search engine and provides on-the-fly formatting. Chordie does not index songs against artists'/composers' will. To remove this song please click here.

This song is displayed as text-only. Transposing and tuning is only available for chordpro-songs.
Rate #1 of 2 versions

Login - add to songbook

SHARE PAGE  




You need to log in to post comments