Guitar Tabs, Chords and Lyrics
Major upgrade!! After one year development the new version of Chordie is now online! Please give feedback.


Snowblind  Black Sabbath

Started: 07:28 8/3/00
Finished: 17:36 8/4/00
Black Sabbath - Snowblind
From Black Sabbath's "Volume 4" Album, Released September, 1972
Tuning Info: Tune to C#, Andante, 104 beats/min. 4/4 count
NOTE: Lyrics may not match written music or may be incorrect.
Multiple guitar parts may not align due to space constraints.
(f)
E F# G D E\(B) C D
 
 ----------------------------------------------------
 ----------------------------------------------------
 ----------------------------8------------11---------
 -------------------------10--10--------12--12-------
 -14-16-17\--12-14\(9)---10----10-----12------12-----
 -12-14-15\--10-12\(7)--8---------8--10----------10--

E F# G D E\(B) C D
 
 ----------------------------------------------------
 ----------------------------------------------------
 ----------------------------8-------------11--------
 -------------------------10--10---------12--12------
 -14-16-17\--12-14\(9)---10-----10-----12-----12-----
 -12-14-15\--10-12\(7)--8---------8--10---------10---

E E D E xx D D E E D E xx D D
 
 ------------------------------------------------------------------
 ------------------------------------------------------------------
 ------------------------------------------------------------------
 ------------------------------------------------------------------
 -14--14-12-14--xx-12-12------10-14--14-12-14--xx-12-12------10----
 -12--12-10-12--xx-10-10-10/12---12--12-10-12--xx-10-10-10/12------

E E D E xx D D E E D E xx D D
 
 ------------------------------------------------------------------
 ------------------------------------------------------------------
 ------------------------------------------------------------------
 ------------------------------------------------------------------
 -14--14-12-14--xx-12-12------10-14--14-12-14--xx-12-12------10----
 -12--12-10-12--xx-10-10-10/12---12--12-10-12--xx-10-10-10/12------

What you get and what you see, thing's don't come so easily
E E D E xx D D E E D E xx D D
 
 ------------------------------------------------------------------
 ------------------------------------------------------------------
 ------------------------------------------------------------------
 ------------------------------------------------------------------
 -14--14-12-14--xx-12-12------10-14--14-12-14--xx-12-12------10----
 -12--12-10-12--xx-10-10-10/12---12--12-10-12--xx-10-10-10/12------

Feeling happy in my pain, icicles within my brain, cocaine
[C] [D] [C] [D] 
 
 ----------------------------------------------------------------------
 ----------------------------------------------------------------------
 ----------------------8-------10----------------------8-------10------
 --------------------10------12----------------------10------12--------
 --7--5------------10------12------7--5------------10------12----------
 ------8-5-5\(3)--8------10------------8-5-5\(3)--8------10------------

(cocaine) (cocaine)
E E D E xx D D E E D E xx D D
 
 ------------------------------------------------------------------
 ------------------------------------------------------------------
 ------------------------------------------------------------------
 ------------------------------------------------------------------
 -14--14-12-14--xx-12-12------10-14--14-12-14--xx-12-12------10----
 -12--12-10-12--xx-10-10-10/12---12--12-10-12--xx-10-10-10/12------

E E D E xx D D E E D E xx D D
 
 ------------------------------------------------------------------
 ------------------------------------------------------------------
 ------------------------------------------------------------------
 ------------------------------------------------------------------
 -14--14-12-14--xx-12-12------10-14--14-12-14--xx-12-12------10----
 -12--12-10-12--xx-10-10-10/12---12--12-10-12--xx-10-10-10/12------

Something blowing in my head winds of ice that soon will spread
E E D E xx D D E E D E xx D D
 
 ------------------------------------------------------------------
 ------------------------------------------------------------------
 ------------------------------------------------------------------
 ------------------------------------------------------------------
 -14--14-12-14--xx-12-12------10-14--14-12-14--xx-12-12------10----
 -12--12-10-12--xx-10-10-10/12---12--12-10-12--xx-10-10-10/12------

Down to freeze my very soul, makes me happy, makes me cold
[C] [D] [C] [D] 
 
 ----------------------------------------------------------------------
 ----------------------------------------------------------------------
 ----------------------8-------10----------------------8-------10------
 --------------------10------12----------------------10------12--------
 --7--5------------10------12------7--5------------10------12----------
 ------8-5-5\(3)--8------10------------8-5-5\(3)--8------10------------

E F# G D E\(B) C D
 
 ----------------------------------------------------
 ----------------------------------------------------
 ----------------------------8------------11---------
 -------------------------10--10--------12--12-------
 -14-16-17\--12-14\(9)---10----10-----12------12-----
 -12-14-15\--10-12\(7)--8---------8--10----------10--

E F# G D E\(B) C D
 
 ----------------------------------------------------
 ----------------------------------------------------
 ----------------------------8-------------11--------
 -------------------------10--10---------12--12------
 -14-16-17\--12-14\(9)---10-----10-----12-----12-----
 -12-14-15\--10-12\(7)--8---------8--10---------10---

BRIDGE 1
[E] [D] [C#] [C] [B] 
 
 ----------------------------------------------------------
 ----------------------------------------------------------
 -------12---------------------------8----------7----------
 -----14--14----------12----11----10--10-------9-9---------
 ---14------14------12----11----10------10----9---9--------
 -12----------12--10-----9-----8----------8--7-----7-------

[E] [D] [C#] [C] [B] 
 
 ----------------------------------------------------------
 ----------------------------------------------------------
 -------12---------------------------8----------7----------
 -----14--14----------12----11----10--10-------9-9---------
 ---14------14------12----11----10------10----9---9--------
 -12----------12--10-----9-----8----------8--7-----7-------

My eyes are blind but I can see
[E] [D] [C#] [C] [B] 
 
 ----------------------------------------------------------
 ----------------------------------------------------------
 -------12---------------------------8----------7----------
 -----14--14----------12----11----10--10-------9-9---------
 ---14------14------12----11----10------10----9---9--------
 -12----------12--10-----9-----8----------8--7-----7-------

The snow flakes glisten on the trees
[E] [D] [C#] [C] [B] 
 
 ----------------------------------------------------------
 ----------------------------------------------------------
 -------12---------------------------8----------7----------
 -----14--14----------12----11----10--10-------9-9---------
 ---14------14------12----11----10------10----9---9--------
 -12----------12--10-----9-----8----------8--7-----7-------

The sun no longer sets me free
[E] [D] [C#] [C] [B] 
 
 ----------------------------------------------------------
 ----------------------------------------------------------
 -------12---------------------------8----------7----------
 -----14--14----------12----11----10--10-------9-9---------
 ---14------14------12----11----10------10----9---9--------
 -12----------12--10-----9-----8----------8--7-----7-------

I feel the snow flakes freezing me!
SOLO
 
 ------------------------------12------------------------
 --------12-15^(17-17-17-17~)----15-12-------------------
 -(10/14------------------------------14-12--------------
 ------------------------------------------14-12\7-5~~---
 --------------------------------------------------------
 --------------------------------------------------------

(Guitar 1)
[E] [D] [C#] [C] [B] 
 
 ----------------------------------------------------------
 ----------------------------------------------------------
 -------12---------------------------8----------7----------
 -----14--14----------12----11----10--10-------9-9---------
 ---14------14------12----11----10------10----9---9--------
 -12----------12--10-----9-----8----------8--7-----7-------

(Guitar 2)
 
 -------------------------------------------------------
 -------------------------------------------------------
 -------------------------------------------------------
 ------5-7/9-9-9p7\5-5h7------5----5------5h7/9~-9-7-5--
 -(3)/7-----------------7~-5-7--7~--7~-5h7--------------
 -------------------------------------------------------

(Guitar 1)
[E] [D] [C#] [C] [B] 
 
 ----------------------------------------------------------
 ----------------------------------------------------------
 -------12---------------------------8----------7----------
 -----14--14----------12----11----10--10-------9-9---------
 ---14------14------12----11----10------10----9---9--------
 -12----------12--10-----9-----8----------8--7-----7-------

(Guitar 2)
 
 ----------------------------------------------------------
 ----------------------------------------------------------
 ----------------------------------------------------------
 -7^(9r7)-5-7-------5----5--------5-7-7^(9)-7^(9r7)-5------
 ------------7~--5h7-7~~--7~~--5h7-------------------------
 ----------------------------------------------------------

(Guitar 1)
[E] [D] [C#] [C] [B] 
 
 ----------------------------------------------------------
 ----------------------------------------------------------
 -------12---------------------------8----------7----------
 -----14--14----------12----11----10--10-------9-9---------
 ---14------14------12----11----10------10----9---9--------
 -12----------12--10-----9-----8----------8--7-----7-------

(Guitar 2)
 
 -------------------------------------------(15)/18~~-12--------------------
 -15^(17-17-17-17sr15)--15^(17)-15-12-------------------15-12---------------
 ------------------------------------14-12\9-----------------14-12----------
 -----------------------------------------------------------------14--------
 -------------------------------------------------------------------12\(9)--
 ---------------------------------------------------------------------------

(Guitar 1)
[E] [D] [C#] [C] [B] 
 
 ----------------------------------------------------------
 ----------------------------------------------------------
 -------12---------------------------8----------7----------
 -----14--14----------12----11----10--10-------9-9---------
 ---14------14------12----11----10------10----9---9--------
 -12----------12--10-----9-----8----------8--7-----7-------

(Guitar 2)
E E D E xx D D E E D E xx D D
 
 ------------------------------------------------------------------
 ------------------------------------------------------------------
 ------------------------------------------------------------------
 ------------------------------------------------------------------
 -14--14-12-14--xx-12-12------10-14--14-12-14--xx-12-12------10----
 -12--12-10-12--xx-10-10-10/12---12--12-10-12--xx-10-10-10/12------

E E D E xx D D E E D E xx D D
 
 ------------------------------------------------------------------
 ------------------------------------------------------------------
 ------------------------------------------------------------------
 ------------------------------------------------------------------
 -14--14-12-14--xx-12-12------10-14--14-12-14--xx-12-12------10----
 -12--12-10-12--xx-10-10-10/12---12--12-10-12--xx-10-10-10/12------

Let the winter sunshine on, let me feel the frost of dawn
E E D E xx D D E E D E xx D D
 
 ------------------------------------------------------------------
 ------------------------------------------------------------------
 ------------------------------------------------------------------
 ------------------------------------------------------------------
 -14--14-12-14--xx-12-12------10-14--14-12-14--xx-12-12------10----
 -12--12-10-12--xx-10-10-10/12---12--12-10-12--xx-10-10-10/12------

Fill my dreams with flakes of snow, soon I'll feel the chilling glow
BRIDGE 2
[E] [D] [C#] [A] [C] [D] [E] [D] [C#] [A] [C] [D] 
 
 ----------------------------------------------------------------------------
 ----------------------------------------------------------------------------
 ----------------------------------8---------------------------------8-------
 --------------------------------10-----12-------------------------10-----12-
 --------14--12-11-7-----------10-----12---14--12-11-7-----------10-----12---
 -(12)\9-12--10-9--5-(12)\9-8-8-----10-----12--10-9--5-(12)\9-8-8-----10-----
 -----------------------------------------------------------------------------
 -----------------------------------------------------------------------------
 -----------------------------------------------------------------------------
 --------5-5--(0)-5-5--(0)-5-5-----------5-5--(0)-5-5--(0)-5-5----------------
 -14--7-7---7--------7--------7p5-5~--7-7---7--------7--------7p5-5~----------
 -12--------------------------------------------------------------------------

Right!
 
 -----------------------------------------------------------------------------
 -----------------------------------------------------------------------------
 -----------------------------------------------------------------------------
 ----5-5--(0)-5-5--(0)-5-5-----------5-5--(0)-5-5--(0)-5-5--------------------
 -7-7---7--------7--------7p5-5~--7-7---7--------7--------7p5-5~--------------
 -----------------------------------------------------------------------------

Don't ya think that I know what I'm doin'? Don't tell me that's doin' me
wrong.
 
 -----------------------------------------------------------------------------
 -----------------------------------------------------------------------------
 -----------------------------------------------------------------------------
 ----5-5--(0)-5-5--(0)-5-5-----------5-5--(0)-5-5--(0)-5-5--------------------
 -7-7---7--------7--------7p5-5~--7-7---7--------7--------7p5-5~--------------
 -----------------------------------------------------------------------------

You're the one who's really the loser. This is where I feel I belong! Blind!
[E] [D] [C#] [A] [C] [D] [E] [D] [C#] [A] [C] [D] 
 
 ----------------------------------------------------------------------------
 ----------------------------------------------------------------------------
 ----------------------------------8---------------------------------8-------
 --------------------------------10-----12-------------------------10-----12-
 --------14--12-11-7-----------10-----12---14--12-11-7-----------10-----12---
 -(12)\9-12--10-9--5-(12)\9-8-8-----10-----12--10-9--5-(12)\9-8-8-----10-----

E E D E xx D D E E D E xx D D
 
 ------------------------------------------------------------------
 ------------------------------------------------------------------
 ------------------------------------------------------------------
 ------------------------------------------------------------------
 -14--14-12-14--xx-12-12------10-14--14-12-14--xx-12-12------10----
 -12--12-10-12--xx-10-10-10/12---12--12-10-12--xx-10-10-10/12------

E E D E xx D D E E D E xx D D
 
 ------------------------------------------------------------------
 ------------------------------------------------------------------
 ------------------------------------------------------------------
 ------------------------------------------------------------------
 -14--14-12-14--xx-12-12------10-14--14-12-14--xx-12-12------10----
 -12--12-10-12--xx-10-10-10/12---12--12-10-12--xx-10-10-10/12------

(Guitar 1)
 
 ----12-------------------------12----------------------------------
 ----15^------------------------15^---------------------------------
 -------------------------------------------------------------------
 -14--------------------------14-------------------------14---------
 -------------------------------------------------------------------
 -------------------------------------------------------------------

(Guitar 2 probably a keyboard, but transcribed for guitar)
Crystal world with winter flowers turn my days to frozen hours
E E D E xx D D E E D E xx D D
 
 ------------------------------------------------------------------
 ------------------------------------------------------------------
 ------------------------------------------------------------------
 ------------------------------------------------------------------
 -14--14-12-14--xx-12-12------10-14--14-12-14--xx-12-12------10----
 -12--12-10-12--xx-10-10-10/12---12--12-10-12--xx-10-10-10/12------

(Guitar 1)
 
 ----12-------------------------12----------------------------------
 ----15^------------------------15^---------------------------------
 -------------------------------------------------------------------
 -14--------------------------14-------------------------14---------
 -------------------------------------------------------------------
 -------------------------------------------------------------------

(Guitar 2)
Lying snowblind in the sun, will my Ice Age ever come?
OUTRO LEAD
 
 -----12-12-12----------12----12h15r12 tr~~~-----12----------12-------
 -15^(17-17-17~r15)-15^(17\12)---------------15^(17sr15)-15^(17sr15)--
 ---------------------------------------------------------------------
 ---------------------------------------------------------------------
 ---------------------------------------------------------------------
 ---------------------------------------------------------------------

(Guitar 1)
E E D E xx D D E E D E xx D D
 
 ------------------------------------------------------------------
 ------------------------------------------------------------------
 ------------------------------------------------------------------
 ------------------------------------------------------------------
 -14--14-12-14--xx-12-12------10-14--14-12-14--xx-12-12------10----
 -12--12-10-12--xx-10-10-10/12---12--12-10-12--xx-10-10-10/12------

(Guitar 2)
 
 -12h15r12 tr~~~---------------------------------------------------
 --------------------12------12-12-12-12-12\10)-----12-/----14-----
 ----------------14^(16)-14^(16-16-16-16-16\12)-14^(16)/16^(18)----
 ------------------------------------------------------------------
 ------------------------------------------------------------------
 ------------------------------------------------------------------

E E D E xx D D E E D E xx D D
 
 ------------------------------------------------------------------
 ------------------------------------------------------------------
 ------------------------------------------------------------------
 ------------------------------------------------------------------
 -14--14-12-14--xx-12-12------10-14--14-12-14--xx-12-12------10----
 -12--12-10-12--xx-10-10-10/12---12--12-10-12--xx-10-10-10/12------

(Guitar 2)
 
 ----------------------------12---------------------------------------------
 -----12-12-12---------12-12---15-12-15p12--12-15^(17)-12-------------------
 -14^(16-16-16r14)-14^(16-16)-------------14-------------12-----------------
 ----------------------------------------------------------14-14p12h14------
 ---------------------------------------------------------------------14----
 ---------------------------------------------------------------------------

(Guitar 1)
E E D E xx D D E E D E xx D D
 
 ------------------------------------------------------------------
 ------------------------------------------------------------------
 ------------------------------------------------------------------
 ------------------------------------------------------------------
 -14--14-12-14--xx-12-12------10-14--14-12-14--xx-12-12------10----
 -12--12-10-12--xx-10-10-10/12---12--12-10-12--xx-10-10-10/12------

(Guitar 2)
 
 --------------12--12-12p10--12-----------12-----12-----------
 ------------12--15--------12--10-8~---------------15p12------
 -14^(16r14)-------------------------14^16--14^16-------------
 -------------------------------------------------------------
 -------------------------------------------------------------
 -------------------------------------------------------------

(Guitar 1)
E E D E xx D D E E D E xx D D
 
 ------------------------------------------------------------------
 ------------------------------------------------------------------
 ------------------------------------------------------------------
 ------------------------------------------------------------------
 -14--14-12-14--xx-12-12------10-14--14-12-14--xx-12-12------10----
 -12--12-10-12--xx-10-10-10/12---12--12-10-12--xx-10-10-10/12------

(Guitar 2)
 
 -------------------------------------------------------------------------
 ------12-15-----12-15-----12-15------12-15-----12-15-----12-15-----12-15-
 -14^16-----14^16-----14^16-----14^16------14^16-----14^16-----14^16------
 -------------------------------------------------------------------------
 -------------------------------------------------------------------------
 -------------------------------------------------------------------------

(Guitar 1)
 
 -------------------------------------------------------------------------
 ------12-15-----12-15-----12-15------12-15-----12-15-----12-15-----12-15-
 -14^16-----14^16-----14^16-----14^16------14^16-----14^16-----14^16------
 -------------------------------------------------------------------------
 -------------------------------------------------------------------------
 -------------------------------------------------------------------------

(Guitar 1)
E E D E xx D D E E D E xx D D
 
 ------------------------------------------------------------------
 ------------------------------------------------------------------
 ------------------------------------------------------------------
 ------------------------------------------------------------------
 -14--14-12-14--xx-12-12------10-14--14-12-14--xx-12-12------10----
 -12--12-10-12--xx-10-10-10/12---12--12-10-12--xx-10-10-10/12------

(Guitar 2)
 
 --------------------------------------12h15p12 tr~~~-------------------------
 ------12-15-----12-15-----12-15p12--12--------------15-12h15p12 tr~~~~~~~~~~-
 -14^16-----14^16-----14^16--------14-----------------------------------------
 -----------------------------------------------------------------------------
 -----------------------------------------------------------------------------
 -----------------------------------------------------------------------------

(Guitar 1)
E E D E xx D D E E D E xx D D
 
 ------------------------------------------------------------------
 ------------------------------------------------------------------
 ------------------------------------------------------------------
 ------------------------------------------------------------------
 -14--14-12-14--xx-12-12------10-14--14-12-14--xx-12-12------10----
 -12--12-10-12--xx-10-10-10/12---12--12-10-12--xx-10-10-10/12------

(Guitar 2)
 
 --------------------------------------------------15-12h15p12 tr~~~~---
 -15-12h15p12 tr~~~~~~~~~~-15-12h15p12 tr~~~~~~~~~~---------------------
 -----------------------------------------------------------------------
 -----------------------------------------------------------------------
 -----------------------------------------------------------------------
 -----------------------------------------------------------------------
 -------------------15-12h15p12 tr~~~------------------15-12h15p12 tr~~~-
 -15-12h15p12 tr~~~-------------------15-12h15p12 tr~~~------------------
 ------------------------------------------------------------------------
 ------------------------------------------------------------------------
 ------------------------------------------------------------------------
 ------------------------------------------------------------------------

E E D E xx D D E E D E xx D D
 
 ------------------------------------------------------------------
 ------------------------------------------------------------------
 ------------------------------------------------------------------
 ------------------------------------------------------------------
 -14--14-12-14--xx-12-12------10-14--14-12-14--xx-12-12------10----
 -12--12-10-12--xx-10-10-10/12---12--12-10-12--xx-10-10-10/12------

(Guitar 2)
 
 ----------------------15-12h15p12 tr~~~-15^17-15-12-12--12-12~----------
 -----15-12h15p12 tr~~~--------------------------------15----------------
 ------------------------------------------------------------------------
 ------------------------------------------------------------------------
 ------------------------------------------------------------------------
 ------------------------------------------------------------------------

(Guitar 1) Begin fade
E E D E xx D D E E D E xx D D
 
 ------------------------------------------------------------------
 ------------------------------------------------------------------
 ------------------------------------------------------------------
 ------------------------------------------------------------------
 -14--14-12-14--xx-12-12------10-14--14-12-14--xx-12-12------10----
 -12--12-10-12--xx-10-10-10/12---12--12-10-12--xx-10-10-10/12------

(Guitar 2)
 
 ------12------12------12----12-12-12-12-12-12-12-12-12-12-12-12-15-15-15\(10)
 --15^(17)-15^(17)-15^(17)---12-12-12-12-12-12-12-12-12-12-12-12-15-15-15\(10)
 --------------------------12-------------------------------------------------
 -----------------------------------------------------------------------------
 -----------------------------------------------------------------------------
 -----------------------------------------------------------------------------

(Guitar 1)
E E D E xx D D E E D E xx D D
 
 ------------------------------------------------------------------
 ------------------------------------------------------------------
 ------------------------------------------------------------------
 ------------------------------------------------------------------
 -14--14-12-14--xx-12-12------10-14--14-12-14--xx-12-12------10----
 -12--12-10-12--xx-10-10-10/12---12--12-10-12--xx-10-10-10/12------

(Guitar 2)
 
 -15-15p12-------------------------------12-----------------------------
 ---------15-15p12------------------12-15---15-12-----12---------15-----
 -----------------14-14p12---(10)/14--------------14^(16r14)-17^(19r17)-
 -------------------------14--------------------------------------------
 -----------------------------------------------------------------------
 -----------------------------------------------------------------------

(Guitar 1)
 
 ------------------------------
 -----12---------15------------
 -14^(16r14)-17^(19r17)--------
 ------------------------------
 ------------------------------
 ------------------------------

(Guitar 1)

Important: The song above is NOT stored on the Chordie server. The original song is hosted at www.xguitar.com. Chordie works as a search engine and provides on-the-fly formatting. Chordie does not index songs against artists'/composers' will. To remove this song please click here.

Text color:
Chord color:
Chord grids: 
Font size:    
Page size: 

A B C C# D E
Rate #5 of 6 versions

Jango Player

Login - add to songbook

SHARE PAGE  




You need to log in to post comments