Guitar Tabs, Chords and Lyrics
Major upgrade!! After one year development the new version of Chordie is now online! Please give feedback.


St. Vitus' Dance  Black Sabbath

Started: 02:51 5/3/01
Finished: 04:20 5/3/01
Black Sabbath - St. Vitus Dance
From Black Sabbath's "Volume 4" Album, Released September, 1972
Tuning Info: Tune to C#, Allegro, 144 beats/min. 4/4 count
NOTE: Lyrics may not match written music or may be incorrect.
Multiple guitar parts may not align due to space constraints.
(f)
 
 ---------------------------------------------------------------------------------------
 -------7------------------------------------7-7----------------------------------------
 -------7--7^(9`7)--7~--------------------7--7-7--(11)-11-12p11-11-11-------------------
 (7)----7---------9----------------------7--7-7---(0)-0---0--0--0--0-------------------
 -5-------------------5^(6)-7^(8-8`7)-5---5---------------------------5^(6)-7^(8-8`7)-5-
 ---------------------------------------------------------------------------------------
 ---------------------------------------------------------------------------------------
 -----7-----------------------------------7--7-7----------------------------------------
 -----7--7-7^(9`7)--7~--------------------7--7-7--(11)-11-12p11-11-11-------------------
 (7)--7-----------9----------------------7--7-7---(0)-0---0--0--0--0-------------------
 -5-------------------5^(6)-7^(8-8`7)-5---5---------------------------5^(6)-7^(8-8`7)-5-
 ---------------------------------------------------------------------------------------

D D D C C F\E F/G
 
 --------------------------------------------------
 --------------------------------------------------
 --------------------------------------------------
 --------------------------------------------------
 -----12---12-12------10-10------15\14--115/17-----
 -(0)-10---10-10--(0)--8--8--(0)-13\12--113/15-----

D D D C C F\E F/G
 
 --------------------------------------------------
 --------------------------------------------------
 --------------------------------------------------
 --------------------------------------------------
 -----12---12-12------10-10------15\14--115/17-----
 -(0)-10---10-10--(0)--8--8--(0)-13\12--113/15-----

So you think you know what's going on
D D D C C F\E F/G
 
 --------------------------------------------------
 --------------------------------------------------
 --------------------------------------------------
 --------------------------------------------------
 -----12---12-12------10-10------15\14--115/17-----
 -(0)-10---10-10--(0)--8--8--(0)-13\12--113/15-----

inside her head
D D D C C F\E F/G
 
 --------------------------------------------------
 --------------------------------------------------
 --------------------------------------------------
 --------------------------------------------------
 -----12---12-12------10-10------15\14--115/17-----
 -(0)-10---10-10--(0)--8--8--(0)-13\12--113/15-----

You think she wants your money but it's you
D D D C C F\E F/G
 
 --------------------------------------------------
 --------------------------------------------------
 --------------------------------------------------
 --------------------------------------------------
 -----12---12-12------10-10------15\14--115/17-----
 -(0)-10---10-10--(0)--8--8--(0)-13\12--113/15-----

she wants instead
 
 ---------------------------------------------------------------------------------------
 -------7------------------------------------7-7----------------------------------------
 -------7--7^(9`7)--7~--------------------7--7-7--(11)-11-12p11-11-11-------------------
 (7)----7---------9----------------------7--7-7---(0)-0---0--0--0--0-------------------
 -5-------------------5^(6)-7^(8-8`7)-5---5---------------------------5^(6)-7^(8-8`7)-5-
 ---------------------------------------------------------------------------------------
 ---------------------------------------------------------------------------------
 -----7-----------------------------------7--7-7----------------------------------
 -----7--7-7^(9`7)--7~--------------------7--7-7--7-7^(9`7)--7~-------------------
 (7)--7-----------9----------------------7--7-7-----------9----------------------
 -5-------------------5^(6)-7^(8-8`7)-5---5---------------------5^(6)-7^(8-8`7)-5-
 ---------------------------------------------------------------------------------

D D D C C F\E F/G
 
 --------------------------------------------------
 --------------------------------------------------
 --------------------------------------------------
 --------------------------------------------------
 -----12---12-12------10-10------15\14--115/17-----
 -(0)-10---10-10--(0)--8--8--(0)-13\12--113/15-----

D D D C C F\E F/G
 
 --------------------------------------------------
 --------------------------------------------------
 --------------------------------------------------
 --------------------------------------------------
 -----12---12-12------10-10------15\14--115/17-----
 -(0)-10---10-10--(0)--8--8--(0)-13\12--113/15-----

D D D C C F\E F/G
 
 --------------------------------------------------
 --------------------------------------------------
 --------------------------------------------------
 --------------------------------------------------
 -----12---12-12------10-10------15\14--115/17-----
 -(0)-10---10-10--(0)--8--8--(0)-13\12--113/15-----

When you think about the things she
D D D C C F\E F/G
 
 --------------------------------------------------
 --------------------------------------------------
 --------------------------------------------------
 --------------------------------------------------
 -----12---12-12------10-10------15\14--115/17-----
 -(0)-10---10-10--(0)--8--8--(0)-13\12--113/15-----

did long ago
D D D C C F\E F/G
 
 --------------------------------------------------
 --------------------------------------------------
 --------------------------------------------------
 --------------------------------------------------
 -----12---12-12------10-10------15\14--115/17-----
 -(0)-10---10-10--(0)--8--8--(0)-13\12--113/15-----

It breaks your heart but you don't mourn
D D D C C F\E F/G
 
 --------------------------------------------------
 --------------------------------------------------
 --------------------------------------------------
 --------------------------------------------------
 -----12---12-12------10-10------15\14--115/17-----
 -(0)-10---10-10--(0)--8--8--(0)-13\12--113/15-----

You know it's hurts to go
 
 ---------------------------------------------------------------------------------------
 -------7------------------------------------7-7----------------------------------------
 -------7--7^(9`7)--7~--------------------7--7-7--(11)-11-12p11-11-11-------------------
 (7)----7---------9----------------------7--7-7---(0)-0---0--0--0--0-------------------
 -5-------------------5^(6)-7^(8-8`7)-5---5---------------------------5^(6)-7^(8-8`7)-5-
 ---------------------------------------------------------------------------------------
 ---------------------------------------------------------------------------------------
 -------7------------------------------------7-7----------------------------------------
 -------7--7^(9`7)--7~--------------------7--7-7--(11)-11-12p11-11-11-------------------
 (7)----7---------9----------------------7--7-7---(0)-0---0--0--0--0-------------------
 -5-------------------5^(6)-7^(8-8`7)-5---5---------------------------5^(6)-7^(8-8`7)-5-
 ---------------------------------------------------------------------------------------

[B] [B] [B] [A] [A] [F#/A] [B] [B] [B] [A] [A] [F#/A] 
 
 ---------------------------------------------------------
 ---------------------------------------------------------
 ---------------------------------------------------------
 ---------------------------------------------------------
 -9--9-9------7-7------4/7---9--9-9-------7-7------4/7----
 -7--7-7--(0)-5-5--(0)-2/5---7--7-7--(0)--5-5--(0)-2/5----

[B] [B] [B] [A] [A] [F#/A] [B] [B] [B] [A] [A] [F#/A] 
 
 ---------------------------------------------------------
 ---------------------------------------------------------
 ---------------------------------------------------------
 ---------------------------------------------------------
 -9--9-9------7-7------4/7---9--9-9-------7-7------4/7----
 -7--7-7--(0)-5-5--(0)-2/5---7--7-7--(0)--5-5--(0)-2/5----

You feel your nerves are shattering, you feel you want to die
[B] [B] [B] [A] [A] [F#/A] [B] [B] [B] [A] [A] [F#/A] 
 
 ---------------------------------------------------------------
 ---------------------------------------------------------------
 ---------------------------------------------------------------
 ---------------------------------------------------------------
 -9--9-9------7-7------4/7---9--9-9-------7-7------4/7----------
 -7--7-7--(0)-5-5--(0)-2/5---7--7-7--(0)--5-5--(0)-2/5/(9\7)----

Just because the one mistake of (???) your life
 
 ---------------------------------------------------------------------------------------
 -------7------------------------------------7-7----------------------------------------
 -------7--7^(9`7)--7~--------------------7--7-7--(11)-11-12p11-11-11-------------------
 (7)----7---------9----------------------7--7-7---(0)-0---0--0--0--0-------------------
 -5-------------------5^(6)-7^(8-8`7)-5---5---------------------------5^(6)-7^(8-8`7)-5-
 ---------------------------------------------------------------------------------------
 ---------------------------------------------------------------------------------------
 -------7------------------------------------7-7----------------------------------------
 -------7--7^(9`7)--7~--------------------7--7-7--(11)-11-12p11-11-11-------------------
 (7)----7---------9----------------------7--7-7---(0)-0---0--0--0--0-------------------
 -5-------------------5^(6)-7^(8-8`7)-5---5---------------------------5^(6)-7^(8-8`7)-5-
 ---------------------------------------------------------------------------------------

D D D C C F\E F/G
 
 --------------------------------------------------
 --------------------------------------------------
 --------------------------------------------------
 --------------------------------------------------
 -----12---12-12------10-10------15\14--115/17-----
 -(0)-10---10-10--(0)--8--8--(0)-13\12--113/15-----

D D D C C F\E F/G
 
 --------------------------------------------------
 --------------------------------------------------
 --------------------------------------------------
 --------------------------------------------------
 -----12---12-12------10-10------15\14--115/17-----
 -(0)-10---10-10--(0)--8--8--(0)-13\12--113/15-----

D D D C C F\E F/G
 
 --------------------------------------------------
 --------------------------------------------------
 --------------------------------------------------
 --------------------------------------------------
 -----12---12-12------10-10------15\14--115/17-----
 -(0)-10---10-10--(0)--8--8--(0)-13\12--113/15-----

If I were you I'd try again and
D D D C C F\E F/G
 
 --------------------------------------------------
 --------------------------------------------------
 --------------------------------------------------
 --------------------------------------------------
 -----12---12-12------10-10------15\14--115/17-----
 -(0)-10---10-10--(0)--8--8--(0)-13\12--113/15-----

try to make amends
D D D C C F\E F/G
 
 --------------------------------------------------
 --------------------------------------------------
 --------------------------------------------------
 --------------------------------------------------
 -----12---12-12------10-10------15\14--115/17-----
 -(0)-10---10-10--(0)--8--8--(0)-13\12--113/15-----

She only thinks of you, you know
D D D C C F\E F/G
 
 --------------------------------------------------
 --------------------------------------------------
 --------------------------------------------------
 --------------------------------------------------
 -----12---12-12------10-10------15\14--115/17-----
 -(0)-10---10-10--(0)--8--8--(0)-13\12--113/15-----

I'm talking as a friend
 
 ---------------------------------------------------------------------------------------
 -------7------------------------------------7-7----------------------------------------
 -------7--7^(9`7)--7~--------------------7--7-7--(11)-11-12p11-11-11-------------------
 (7)----7---------9----------------------7--7-7---(0)-0---0--0--0--0-------------------
 -5-------------------5^(6)-7^(8-8`7)-5---5---------------------------5^(6)-7^(8-8`7)-5-
 ---------------------------------------------------------------------------------------
 ---------------------------------------------------------------------------------------
 -------7------------------------------------7-7----------------------------------------
 -------7--7^(9`7)--7~--------------------7--7-7--(11)-11-12p11-11-11-----------------7-
 (7)----7---------9----------------------7--7-7---(0)-0---0--0--0--0-----------------7-
 -5-------------------5^(6)-7^(8-8`7)-5---5---------------------------5^(6)-7^(8-8`7)-5-
 ---------------------------------------------------------------------------------------


Important: The song above is NOT stored on the Chordie server. The original song is hosted at www.xguitar.com. Chordie works as a search engine and provides on-the-fly formatting. Chordie does not index songs against artists'/composers' will. To remove this song please click here.

Text color:
Chord color:
Chord grids: 
Font size:    
Page size: 

A B
Rate #2 of 3 versions

Login - add to songbook

SHARE PAGE  




You need to log in to post comments