Guitar Tabs, Chords and Lyrics
Major upgrade!! After one year development the new version of Chordie is now online! Please give feedback.


Supernaut   Black Sabbath

 
 --------------------------------------------------------------------
 --------------------------------------------------------------------
 --------------------------------------------------------------------
 ---------------------------------------------7~-7-7p5--7-7-7p5------
 -7--7-7p5-5-7-7--7-7-7p5-5~-5-7--7-7-7p5-5-7---------7--------7-----
 ---------7--------------7---------------7---------------------------

 


 [d] [u] [d] [u]  


 

 
 --------------------------------------------------------------------
 --------------------------------------------------------------------
 --------------------------------------------------------------------
 ---------------------------------------------7~-7-7p5--7-7-7p5------
 -7--7-7p5-5-7-7--7-7-7p5-5~-5-7--7-7-7p5-5-7---------7--------7-----
 ---------7--------------7---------------7---------------------------

 


 (Guitar 1)[d] [u] [d] [u]


 


 

 
 -----------------------------------------------------------------------------
 --------------------------------------------10~-10-10p8--10-10-10p8----------
 -9--9-9p7-7-9-9--9-9-9p7-7~-7-9--9-9-9p7-7-9-----------9-----------9-9\(5)---
 ---------9--------------9---------------9------------------------------------
 -----------------------------------------------------------------------------
 -----------------------------------------------------------------------------

 


 (Guitar 2) d u d u


 


 E\(C#) D D C D C D E\(C#) D D C D C D


 

 
 ------------------------------------------------------------------
 ------------------------------------------------------------------
 -9\(6)--------------------------9\(6)-----------------------------
 -9\(6)------------7--7-5-7--5-7-9\(6)------------7--7-5-7--5-7----
 -7\(4)-----7---7--5--5-3-5--3-5-7\(4)-----7---7--5--5-3-5--3-5----
 ------(3)/7-6/7----------------------(3)/7-6/7--------------------

 


 


 E\(C#) D D C D C D E\(C#) D D C D C D


 

 
 ------------------------------------------------------------------
 ------------------------------------------------------------------
 -9\(6)--------------------------9\(6)-----------------------------
 -9\(6)------------7--7-5-7--5-7-9\(6)------------7--7-5-7--5-7----
 -7\(4)-----7---7--5--5-3-5--3-5-7\(4)-----7---7--5--5-3-5--3-5----
 ------(3)/7-6/7----------------------(3)/7-6/7--------------------

 


 


 E\(C#) D D C D C D E\(C#) D D C D C D


 

 
 ------------------------------------------------------------------
 ------------------------------------------------------------------
 -9\(6)--------------------------9\(6)-----------------------------
 -9\(6)------------7--7-5-7--5-7-9\(6)------------7--7-5-7--5-7----
 -7\(4)-----7---7--5--5-3-5--3-5-7\(4)-----7---7--5--5-3-5--3-5----
 ------(3)/7-6/7----------------------(3)/7-6/7--------------------

 


 I wanna reach out, and touch the sky. I wanna touch the sun but I don't need


 to fly.


 


 E\(C#) D D C D C D E\(C#) D D C D C D


 

 
 ------------------------------------------------------------------
 ------------------------------------------------------------------
 -9\(6)--------------------------9\(6)-----------------------------
 -9\(6)------------7--7-5-7--5-7-9\(6)------------7--7-5-7--5-7----
 -7\(4)-----7---7--5--5-3-5--3-5-7\(4)-----7---7--5--5-3-5--3-5----
 ------(3)/7-6/7----------------------(3)/7-6/7--------------------

 


 I'm gonna climb up every moutain on the moon and find the dish that ran away


 with the spoon


 


 

 
 --------------------------------------------------------------------
 --------------------------------------------------------------------
 --------------------------------------------------------------------
 ---------------------------------------------7~-7-7p5--7-7-7p5------
 -7--7-7p5-5-7-7--7-7-7p5-5~-5-7--7-7-7p5-5-7---------7--------7-----
 ---------7--------------7---------------7---------------------------

 


 [d] [u] [d] [u]  


 

 
 --------------------------------------------------------------------
 --------------------------------------------------------------------
 --------------------------------------------------------------------
 ---------------------------------------------7~-7-7p5--7-7-7p5------
 -7--7-7p5-5-7-7--7-7-7p5-5~-5-7--7-7-7p5-5-7---------7--------7-----
 ---------7--------------7---------------7---------------------------

 


 (Guitar 1)[d] [u] [d] [u]


 


 

 
 -----------------------------------------------------------------------------
 --------------------------------------------10~-10-10p8--10-10-10p8----------
 -9--9-9p7-7-9-9--9-9-9p7-7~-7-9--9-9-9p7-7-9-----------9-----------9-9\(5)---
 ---------9--------------9---------------9------------------------------------
 -----------------------------------------------------------------------------
 -----------------------------------------------------------------------------

 


 (Guitar 2) d u d u


 


 E\(C#) D D C D C D E\(C#) D D C D C D


 

 
 ------------------------------------------------------------------
 ------------------------------------------------------------------
 -9\(6)--------------------------9\(6)-----------------------------
 -9\(6)------------7--7-5-7--5-7-9\(6)------------7--7-5-7--5-7----
 -7\(4)-----7---7--5--5-3-5--3-5-7\(4)-----7---7--5--5-3-5--3-5----
 ------(3)/7-6/7----------------------(3)/7-6/7--------------------

 


 


 E\(C#) D D C D C D E\(C#) D D C D C D


 

 
 ------------------------------------------------------------------
 ------------------------------------------------------------------
 -9\(6)--------------------------9\(6)-----------------------------
 -9\(6)------------7--7-5-7--5-7-9\(6)------------7--7-5-7--5-7----
 -7\(4)-----7---7--5--5-3-5--3-5-7\(4)-----7---7--5--5-3-5--3-5----
 ------(3)/7-6/7----------------------(3)/7-6/7--------------------

 


 


 E\(C#) D D C D C D E\(C#) D D C D C D


 

 
 ------------------------------------------------------------------
 ------------------------------------------------------------------
 -9\(6)--------------------------9\(6)-----------------------------
 -9\(6)------------7--7-5-7--5-7-9\(6)------------7--7-5-7--5-7----
 -7\(4)-----7---7--5--5-3-5--3-5-7\(4)-----7---7--5--5-3-5--3-5----
 ------(3)/7-6/7----------------------(3)/7-6/7--------------------

 


 I've crossed the oceans, turned every bend. I've found the plastic at the


 golden rainbow's end.


 


 E\(C#) D D C D C D E\(C#) D D C D C D


 

 
 ------------------------------------------------------------------
 ------------------------------------------------------------------
 -9\(6)--------------------------9\(6)-----------------------------
 -9\(6)------------7--7-5-7--5-7-9\(6)------------7--7-5-7--5-7----
 -7\(4)-----7---7--5--5-3-5--3-5-7\(4)-----7---7--5--5-3-5--3-5----
 ------(3)/7-6/7----------------------(3)/7-6/7--------------------

 


 I've been through magic and through life's reality, I've lived a thousand


 years, they've never bothered me.


 


 LEAD


 

 
 --12-------12------15p12--15--15p12--15p12--12-(12h15 tr~~~)-12-(12h15 tr~~~)
 --15^(17)--15^(17)------15--------15------15---------------------------------
 -----------------------------------------------------------------------------
 -----------------------------------------------------------------------------
 -----------------------------------------------------------------------------
 -----------------------------------------------------------------------------

 


 (Guitar 1)


 


 

 
 --------------------------------------------------------------------
 --------------------------------------------------------------------
 --------------------------------------------------------------------
 ---------------------------------------------7~-7-7p5--7-7-7p5------
 -7--7-7p5-5-7-7--7-7-7p5-5~-5-7--7-7-7p5-5-7---------7--------7-----
 ---------7--------------7---------------7---------------------------

 


 (Guitar 2)[d] [u] [d] [u]


 


 

 
 -12-(12h15 tr~~~)-(12h15 tr~~~~~)-15^(18)-12--------12-12~-12\(9)---
 --------------------------------------------15p12h15-------12\(9)---
 --------------------------------------------------------------------
 --------------------------------------------------------------------
 --------------------------------------------------------------------
 --------------------------------------------------------------------

 


 (Guitar 1)


 


 

 
 --------------------------------------------------------------------
 --------------------------------------------------------------------
 --------------------------------------------------------------------
 ---------------------------------------------7~-7-7p5--7-7-7p5------
 -7--7-7p5-5-7-7--7-7-7p5-5~-5-7--7-7-7p5-5-7---------7--------7-----
 ---------7--------------7---------------7---------------------------

 


 (Guitar 2)[d] [u] [d] [u]


 


 

 
 -------10--(10)---------------------------------------------------------
 -(9)/12--12----(10h12p10 tr~~~~~~~~~~~~~~~~~~~)-12~~-------10-10p8------
 ------------------------------------------------------(7)/9-------9-9p7-
 -------------------------------------------------------------------9----
 ------------------------------------------------------------------------
 ------------------------------------------------------------------------

 


 (Guitar 1)


 


 

 
 --------------------------------------------------------------------
 --------------------------------------------------------------------
 --------------------------------------------------------------------
 ---------------------------------------------7~-7-7p5--7-7-7p5------
 -7--7-7p5-5-7-7--7-7-7p5-5~-5-7--7-7-7p5-5-7---------7--------7-----
 ---------7--------------7---------------7---------------------------

 


 (Guitar 2)[d] [u] [d] [u]


 


 

 
 ------------------------------------------------------------12-12-------
 ---------------------------------------7h9 tr~~-8h10 tr~~/15------------
 -7-(7h9p7 tr~~~~~~)-7^(8)-7p5--7h9 tr~~---------------------------------
 -----------------------------7------------------------------------------
 ------------------------------------------------------------------------
 ------------------------------------------------------------------------

 


 (Guitar 1)


 


 

 
 --------------------------------------------------------------------
 --------------------------------------------------------------------
 --------------------------------------------------------------------
 ---------------------------------------------7~-7-7p5--7-7-7p5------
 -7--7-7p5-5-7-7--7-7-7p5-5~-5-7--7-7-7p5-5-7---------7--------7-----
 ---------7--------------7---------------7---------------------------

 


 (Guitar 2)[d] [u] [d] [u]


 


 

 
 -12--------12------------12------12------12------12--------12------12--------
 -15^(17r15)--15^(17r15)--15^(17)-15^(17)-15^(17)-15^(17)---15^(17)-15^(17)---
 -----------------------------------------------------------------------------
 -----------------------------------------------------------------------------
 -----------------------------------------------------------------------------
 -----------------------------------------------------------------------------

 


 (Guitar 1)


 


 

 
 --------------------------------------------------------------------
 --------------------------------------------------------------------
 --------------------------------------------------------------------
 ---------------------------------------------7~-7-7p5--7-7-7p5------
 -7--7-7p5-5-7-7--7-7-7p5-5~-5-7--7-7-7p5-5-7---------7--------7-----
 ---------7--------------7---------------7---------------------------

 


 d u d u (Lead actually ends here)


 (Guitar 2)


 


 

 
 -(12h15p12 tr~~~)------------------------------------------------------------
 -----------------(12h15p12 tr~~~~~)------------------------------------------
 -----------------------------------(12h14p12 tr~~~~~)------------------------
 -----------------------------------------------------(12h14p12 tr~~~~)-14~~~-
 -----------------------------------------------------------------------------
 -----------------------------------------------------------------------------

 


 (Guitar 1)


 


 

 
 -----------------------------------------------------------------------------
 -----------------------------------------------------------------------------
 -(12h14p12 tr~~~~)-(12h14p12 tr~~~~)-(12h14p12 tr~~~~)-(12h14p12 tr~~~~)-----
 -----------------------------------------------------------------------------
 -----------------------------------------------------------------------------
 -----------------------------------------------------------------------------

 


 (Guitar 1)


 


 

 
 -----------------12--12---12---12--------------------------------------------
 -------------12--12--12---12---12--------12-15-------12-15-------12-15-------
 --15s^(16)-15--15--15---15---15---14^(16)-----14^(16)-----14^(16)------------
 -----------------------------------------------------------------------------
 -----------------------------------------------------------------------------
 -----------------------------------------------------------------------------

 


 


 

 
 -----------------------------------------------------------------------------
 --------12-15-------12-15-------12-15-------12-15-------12-15-------12-15----
 -14^(16)-----14^(16)-----14^(16)-----14^(16)-----14^(16)-----14^(16)---------
 -----------------------------------------------------------------------------
 -----------------------------------------------------------------------------
 -----------------------------------------------------------------------------

 


 (Guitar 1)


 


 

 
 -------------------------------------------15^(17)-15-15p12--12-12--12-12----
 --------12-15-------12-15p12----------12-15----------------15------15--------
 -14^(16)-----14^(16)--------14-14p12-----------------------------------------
 ------------------------------------14---------------------------------------
 -----------------------------------------------------------------------------
 -----------------------------------------------------------------------------

 


 (Guitar 1)


 


 

 
 -15-12-----------------------
 -------15--------------------
 ---------14p12---------------
 --------------14-14\(9)------
 -----------------------------
 -----------------------------

 


 (Guitar 1)


 


 

 
 --------------------------------------------------------------------
 --------------------------------------------------------------------
 --------------------------------------------------------------------
 ---------------------------------------------7~-7-7p5--7-7-7p5------
 -7--7-7p5-5-7-7--7-7-7p5-5~-5-7--7-7-7p5-5-7---------7--------7-7---
 ---------7--------------7---------------7---------------------------

 


 (Guitar 1)[d] [u] [d] [u]


 


 

 
 -----------------------------------------------------------------------------
 --------------------------------------------10~-10-10p8--10-10-10p8----------
 -9--9-9p7-7-9-9--9-9-9p7-7~-7-9--9-9-9p7-7-9-----------9-----------9-9\(5)---
 ---------9--------------9---------------9------------------------------------
 -----------------------------------------------------------------------------
 -----------------------------------------------------------------------------

 


 (Guitar 2) d u d u


 


 Drum Solo


 


 BRIDGE (Guitar Clean)


 

 
 -----------------------------------------------------------------------------
 -----------------------------------------------------------------------------
 -13--13--13-13-----------16-16-13-16---16-16-13-16---16-16-13-16-------------
 -14--14--14-14-----------14-14-14-14---14-14-14-14---14-14-14-14-------------
 -----------------------------------------------------------------------------
 -----------------------------------------------------------------------------
 -----------------------------------------------------------------------------
 -----------------------------------------------------------------------------
 -13--13--13-13-----------16-16-13-16---16-16-13-16---16-16-13-16-------------
 -14--14--14-14-----------14-14-14-14---14-14-14-14---14-14-14-14-------------
 -----------------------------------------------------------------------------
 -----------------------------------------------------------------------------
 -----------------------------------------------------------------------------
 -----------------------------------------------------------------------------
 -13--13--13-13-----------16-16-13-16---16-16-13-16---16-16-13-16-------------
 -14--14--14-14-----------14-14-14-14---14-14-14-14---14-14-14-14-------------
 -----------------------------------------------------------------------------
 -----------------------------------------------------------------------------
 -----------------------------------------------------------------------------
 -----------------------------------------------------------------------------
 -13--13--13-13-----------16-16-13-16---16-16-13-16---16-16-13-16-------------
 -14--14--14-14-----------14-14-14-14---14-14-14-14---14-14-14-14-------------
 -----------------------------------------------------------------------------
 -----------------------------------------------------------------------------
 -----------------------------------------------------------------------------
 -----------------------------------------------------------------------------
 -13--13--13-13-----------16-16-13-16---16-16-13-16---16-16-13-16-------------
 -14--14--14-14-----------14-14-14-14---14-14-14-14---14-14-14-14-------------
 -----------------------------------------------------------------------------
 -----------------------------------------------------------------------------
 -----------------------------------------------------------------------------
 -----------------------------------------------------------------------------
 -13--13--13-13-----------16-16-13-16---16-16-13-16---16-16-13-16-------------
 -14--14--14-14-----------14-14-14-14---14-14-14-14---14-14-14-14-------------
 -----------------------------------------------------------------------------
 -----------------------------------------------------------------------------
 -----------------------------------------------------------------------------
 -----------------------------------------------------------------------------
 -13--13--13-13-----------16-16-13-16---16-16-13-16---16-16-13-16-------------
 -14--14--14-14-----------14-14-14-14---14-14-14-14---14-14-14-14-------------
 -----------------------------------------------------------------------------
 -----------------------------------------------------------------------------
 -----------------------------------------------------------------------------
 -----------------------------------------------------------------------------
 -13--13--13-13-----------16-16-13-16---16-16-13-16---16-16-13-16-------------
 -14--14--14-14-----------14-14-14-14---14-14-14-14---14-14-14-14-------------
 -----------------------------------------------------------------------------
 -----------------------------------------------------------------------------

 


 


 E\(C#) D D C D C D E\(C#) D D C D C D


 

 
 ------------------------------------------------------------------
 ------------------------------------------------------------------
 -9\(6)--------------------------9\(6)-----------------------------
 -9\(6)------------7--7-5-7--5-7-9\(6)------------7--7-5-7--5-7----
 -7\(4)-----7---7--5--5-3-5--3-5-7\(4)-----7---7--5--5-3-5--3-5----
 ------(3)/7-6/7----------------------(3)/7-6/7--------------------

 


 


 E\(C#) D D C D C D E\(C#) D D C D C D


 

 
 ------------------------------------------------------------------
 ------------------------------------------------------------------
 -9\(6)--------------------------9\(6)-----------------------------
 -9\(6)------------7--7-5-7--5-7-9\(6)------------7--7-5-7--5-7----
 -7\(4)-----7---7--5--5-3-5--3-5-7\(4)-----7---7--5--5-3-5--3-5----
 ------(3)/7-6/7----------------------(3)/7-6/7--------------------

 


 


 E\(C#) D D C D C D E\(C#) D D C D C D


 

 
 ------------------------------------------------------------------
 ------------------------------------------------------------------
 -9\(6)--------------------------9\(6)-----------------------------
 -9\(6)------------7--7-5-7--5-7-9\(6)------------7--7-5-7--5-7----
 -7\(4)-----7---7--5--5-3-5--3-5-7\(4)-----7---7--5--5-3-5--3-5----
 ------(3)/7-6/7----------------------(3)/7-6/7--------------------

 


 Got no religion, don't need no friends. Got all I want and I don't need to


 pretend


 


 E\(C#) D D C D C D E\(C#) D D C D C D


 

 
 ------------------------------------------------------------------
 ------------------------------------------------------------------
 -9\(6)--------------------------9\(6)-----------------------------
 -9\(6)------------7--7-5-7--5-7-9\(6)------------7--7-5-7--5-7----
 -7\(4)-----7---7--5--5-3-5--3-5-7\(4)-----7---7--5--5-3-5--3-5----
 ------(3)/7-6/7----------------------(3)/7-6/7--------------------

 


 Don't try to reach me 'cause I'll tear up your mind. I've seen the future and


 I've left it behind.


 


 

 
 --------------------------------------------------------------------
 --------------------------------------------------------------------
 --------------------------------------------------------------------
 ---------------------------------------------7~-7-7p5--7-7-7p5------
 -7--7-7p5-5-7-7--7-7-7p5-5~-5-7--7-7-7p5-5-7---------7--------7-----
 ---------7--------------7---------------7---------------------------

 


 [d] [u] [d] [u]  


 

 
 --------------------------------------------------------------------
 --------------------------------------------------------------------
 --------------------------------------------------------------------
 ---------------------------------------------7~-7-7p5--7-7-7p5------
 -7--7-7p5-5-7-7--7-7-7p5-5~-5-7--7-7-7p5-5-7---------7--------7-----
 ---------7--------------7---------------7---------------------------

 


 (Guitar 1)[d] [u] [d] [u]


 


 

 
 -----------------------------------------------------------------------------
 --------------------------------------------10~-10-10p8--10-10-10p8----------
 -9--9-9p7-7-9-9--9-9-9p7-7~-7-9--9-9-9p7-7-9-----------9-----------9-9\(5)---
 ---------9--------------9---------------9------------------------------------
 -----------------------------------------------------------------------------
 -----------------------------------------------------------------------------

 


 (Guitar 2) d u d u


 


 

 
 --------------------------------------------------------------------
 --------------------------------------------------------------------
 --------------------------------------------------------------------
 ---------------------------------------------7~-7-7p5--7-7-7p5------
 -7--7-7p5-5-7-7--7-7-7p5-5~-5-7--7-7-7p5-5-7---------7--------7-----
 ---------7--------------7---------------7---------------------------

 


 (Guitar 1) [d] [u] [d] [u] Begin to fade out


 


 

 
 -----------------------------------------------------------------------------
 --------------------------------------------10~-10-10p8--10-10-10p8----------
 -9--9-9p7-7-9-9--9-9-9p7-7~-7-9--9-9-9p7-7-9-----------9-----------9-9\(5)---
 ---------9--------------9---------------9------------------------------------
 -----------------------------------------------------------------------------
 -----------------------------------------------------------------------------

 


 (Guitar 2) d u d u


 


 

 
 --------------------------------------------------------------------
 --------------------------------------------------------------------
 --------------------------------------------------------------------
 ---------------------------------------------7~-7-7p5--7-7-7p5------
 -7--7-7p5-5-7-7--7-7-7p5-5~-5-7--7-7-7p5-5-7---------7--------7-----
 ---------7--------------7---------------7---------------------------

 


 (Guitar 1)[d] [u] [d] [u]


 


 

 
 -----------------------------------------------------------------------------
 --------------------------------------------10~-10-10p8--10-10-10p8----------
 -9--9-9p7-7-9-9--9-9-9p7-7~-7-9--9-9-9p7-7-9-----------9-----------9-9\(5)---
 ---------9--------------9---------------9------------------------------------
 -----------------------------------------------------------------------------
 -----------------------------------------------------------------------------

 


 (Guitar 2) d u d u


 


 

 
 --------------------------------------------------------------------
 --------------------------------------------------------------------
 --------------------------------------------------------------------
 ---------------------------------------------7~-7-7p5--7-7-7p5------
 -7--7-7p5-5-7-7--7-7-7p5-5~-5-7--7-7-7p5-5-7---------7--------7-----
 ---------7--------------7---------------7---------------------------

 


 (Guitar 1)[d] [u] [d] [u]


 


 

 
 -----------------------------------------------------------------------------
 --------------------------------------------10~-10-10p8--10-10-10p8----------
 -9--9-9p7-7-9-9--9-9-9p7-7~-7-9--9-9-9p7-7-9-----------9-----------9-9\(5)---
 ---------9--------------9---------------9------------------------------------
 -----------------------------------------------------------------------------
 -----------------------------------------------------------------------------


Important: The song above is NOT stored on the Chordie server. The original song is hosted at www.xguitar.com. Chordie works as a search engine and provides on-the-fly formatting. Chordie does not index songs against artists'/composers' will. To remove this song please click here.

This song is displayed as text-only. Transposing and tuning is only available for chordpro-songs.
Rate #3 of 4 versions

Jango Player

Login - add to songbook

SHARE PAGE  



You need to log in to post comments