Guitar Tabs, Chords and Lyrics
Server problems seems to be fixed. Chordie has been experiencing problems with songs disappearing. These issues now seems to be fixed, but still verifying the fix. If you find anything strange, please email admin@chordie.com.


Gonna Change My Way of Thinking  Bob Dylan

Words and music Bob Dylan
Released on Slow Train Coming (1979)
Tabbed by Eyolf ěstrem
There isn't really much of a chord structure here, just a 12-bar blues riff.
The tab is just a suggestion ? it could be played elsewhere and in other octaves ?
and so is the chords in parenthesis.
 
 --------------------------------------------------------------------------------

[A]: . . . :[(D] . [C] . [D)] . : . . . :[(D] . [C] . [A)] .
 
 |-----------------|-----------------|-----------------|-----------------
 |-----------------|-----------------|-----------------|-----------------
 |-----------------|-----------------|-----------------|-----------------
 |-----------------|-----------------|-----------------|-----------------
 |-----------------|---5---3---5-----|-----------------|---5---3---------
 |-5-5-3-5---------|-----------------|-5-5-3-5---------|-----------5-----

[D]: . . . :[(G] . [F] . [D)] . [A]: . . . :[(D] . [C] . [D)] .
 
 |-----------------|-----------------|-----------------|-----------------
 |-----------------|-----------------|-----------------|-----------------
 |-----------------|-----------------|-----------------|-----------------
 |-----------------|---5---3---------|-----------------|-----------------
 |-5-5-3-5---------|-----------5-----|-----------------|---5---3---------
 |-----------------|-----------------|-5-5-3-5---------|-----------5-----

[E]: . . . [D]: . . . [A]: . . . : . . .
 
 |-----------------|-----------------|-----------------|-----------------
 |-----------------|-----------------|-----------------|-----------------
 |-----------------|-----------------|-----------------|-----------------
 |-----------------|-----------------|-----------------|-----------------
 |-7-7-5-7---------|-5-5-3-5---------|-------------3---|-----------------
 |-----------------|-----------------|-5-5-3-5---3---3-|-5-5---3-5-5-----

[A]Change my way of thinking,
Make myself a different set of rules.
Gonna [D]change my way of thinking,
Make myself a different set of [A]rules.
Gonna put my [E]good foot forward,
[D]stop being influenced by [A]fools.
So much oppression,
Can't keep track of it no more.
So much oppression,
Can't keep track of it no more.
Sons becoming husbands to their mothers,
And old men turning young daughters into whores.
Stripes on your shoulders,
Stripes on your back and on your hands.
Stripes on your shoulders,
Stripes on your back and on your hands.
Swords piercing your side,
Blood and water flowing through the land.
Well don't know which one is worse,
Doing your own thing or just being cool.
Well don't know which one is worse,
Doing your own thing or just being cool.
You remember only about the brass ring,
You forget all about the golden rule.
You can mislead a man,
You can take ahold of his heart with your eyes.
You can mislead a man,
You can take ahold of his heart with your eyes.
But there's only one authority,
And that's the authority on high.
I got a God-fearing woman,
One I can easily afford.
I got a God-fearing woman,
One I can easily afford.
She can do the Georgia crawl,
She can walk in the spirit of the Lord.
Jesus said, "Be ready,
For you know not the hour in which I come."
Jesus said, "Be ready,
For you know not the hour in which I come."
He said, "He who is not for Me is against Me,"
Just so you know where He's coming from.
There's a kingdom called Heaven,
A place where there is no pain of birth.
There's a kingdom called Heaven,
A place where there is no pain of birth.
Well the Lord created it, mister,
About the same time He made the earth.

Important: The song above is NOT stored on the Chordie server. The original song is hosted at www.xguitar.com. Chordie works as a search engine and provides on-the-fly formatting. Chordie does not index songs against artists'/composers' will. To remove this song please click here.

Text color:
Chord color:
Chord grids: 
Font size:    
Page size: 

A C D E F
Rate #2 of 2 versions

Login - add to songbook

SHARE PAGE  




You need to log in to post comments