Guitar Tabs, Chords and Lyrics
Major upgrade!! After one year development the new version of Chordie is now online! Please give feedback.


Blood in My Eyes  Bob Dylan

(traditional, arranged by Bob Dylan)
Released on World Gone Wrong (1993)
Tabbed by Eyolf ěstrem
Capo 2nd fret (Original key D major)
The chord I've called "G7" (G6sus4add7/C, to be precise) could have been called
Csus4maj7, or even some F-chord variant, but I consider it functionally as a dominant,
hence a G, even though a G is hardly sounding in the chord. What's in a name anyway?
Sometimes it is replaced by an F.
 
 --------------------------------------------------------------------------------

Chords:
C x32010
Csus4 x33010
[F]"G7" [133211]x33000
C Csus4 F "G7"
: . . .
 
 |-------------1-----0------|
 |----(1)------1-----0------|
 |----(0)0-----2-----0------|
 |-2-----3-----3-----3------| x2
 |-3---------3-------3------|
 |--------------------------|

C Csus4 F "G7"
Woke up this morning,
C Csus4 F "G7"
feeling blue,
C F "G7" C F C
Seen a good-lookin' girl, can I make love with you?
F G Csus4 C Csus4 F "G7"
Hey, hey, babe, I got blood in my eyes for you,
F G Csus4 |: C Csus4 F "G7" :|
Hey, hey, babe, I got blood in my eyes for you.
I got [G]blood in my eyes for you, babe,
"G7" F C
I don't care what in the world you do.
I went back home, put on my tie,
Gonna get that girl that money will buy.
Hey, hey, [1)]babe, I got blood in my eyes for you,
Hey, hey, [1)]babe, I got blood in my eyes for you.
I got blood in my eyes for you, babe,
I don't care what in the world you do.
: . . .
 
 1) |--------------------------|
 |--------------------------|
 |-------------2---3-/5-----|
 |-------------3---5-/7-----|
 |--------------------------|
 |--------------------------|

babe I got . . .
She looked at me, begin to smile,
Said, "Hey, hey, man, can't you wait a little while?"
No, no, babe, I got blood in my eyes for you.
No, no, babe, I got blood in my eyes for you.
Got blood in my eyes for you, babe, I don't care what in the world you do.
: . . . : . . . : . . .
 
 |-------------------------|--|-------------------------|-------1----------------|
 |-------------------------|--|-------------------------|-------1----------------|
 |-0---0-------------------|x3|-0---0-0---0-0-----------|-2-----2----------------|
 |-2---2-3---3-4---4-5---5-|--|-2---2-2---2-2-----------|-3-----3----------------|
 |-3---3-5---5-6---6-7---7-|--|-3---3-3---3-3-----------|-3----------------------|
 |-------------------------|--|-----------------3-0-----|-1---------3-4-----5----|

: . . . : . . . : . . .
 
 |-----1--------------------|-0---0--------------------|-3-----------------------|
 |-----1--------------------|*1---1(0---0-0---0-0---0)*|-3-----------------------|
 |-----2--------------------|-0---0(0---0-0---0-0---0)-|-4---------0-0---0-0-----|
 |-----3--------------------|-2---2-3---3-4---4-5---5--|-5-----------------------|
 |-3------------------------|*3---3-5---5-6---6-7---7-*|-5---------3-4---4-5-----|
 |-1-----3---3-4---4-5------|--------------------------|-3---------5-6---6-7---0-|

: . . .
 
 |-----1-----1-------1-----|-0---0--------------------|
 |-----1-----1-------1-----|*1---1(0---0-0---0-0---0)*|
 |-----2-----2-------2-----|-0---0(0---0-0---0-0---0)-|
 |-3-----3-----------3-----|-2---2-3---3-4---4-5---5--|
 |-3-----3-----3-----------|*3---3-5---5-6---6-7---7-*|
 |-1-----1-----1-----------|--------------------------|

No, no, ma'am, I can't wait,
You got my money, now you're trying to break this date.
Hey, hey, babe, I got blood in my eyes for you,
Hey, hey, babe, I got blood in my eyes for you.
I got blood in my eyes for you, babe, I don't care what in the world you do.
I tell you something, tell you the facts,
You don't want me, give my money back.
Hey, hey, babe, I got blood in my eyes for you,
Hey, hey, babe, I got blood in my eyes for you.
I got blood in my eyes for you, babe, I don't care what in the world you do.
: . . .
 
 |-0--0---------------------|-------0-----0------||
 |*1--1-(0--0--0--0--0--0)-*|----1--1-----1------||
 |-0--0-(0--0--0--0--0--0)--|----0--------0------||
 |-2--2--3--3--4--4--5--5---|-2-----------2------||
 |*3--3--5--5--6--6--7--7--*|-3--------3---------||
 |--------------------------|--------------------||


Important: The song above is NOT stored on the Chordie server. The original song is hosted at www.xguitar.com. Chordie works as a search engine and provides on-the-fly formatting. Chordie does not index songs against artists'/composers' will. To remove this song please click here.

Text color:
Chord color:
Chord grids: 
Font size:    
Page size: 

F G
Rate #2 of 5 versions

Login - add to songbook

SHARE PAGE  




You need to log in to post comments