Guitar Tabs, Chords and Lyrics
Major upgrade!! After one year development the new version of Chordie is now online! Please give feedback.


My Hometown  Bowling for Soup

Tuning:Standard
Chords used-
[C] [Gm] [G] [A]  
 
 e|-0--1---3---0-----|
 B|-1--1---0---2-----|
 G|-0--1---0---2-----|
 D|-2--3---0---2-----|
 A|-3--3---2---0-----|
 E|-0--1---3---0-----|

Start of acoustically
[C]This song goes out to my good friends
[C]Especially the ones I had before[G] the Grammy Nomina[Gm]tions in 2003
And to[C] all the girls from back in h[Gm]igh school
Who actua[C]lly spoke to me
Even [G]though I was a fat kid and a ma[Gm]rching band geek
c Gm
I hope this song finds you well
And I [C]hope that your doing ***ing s[Gm]well
I h[G]ope that your back up, if you've e[A]ver been [Gm]down
*TURN DISTORTION ON*
And I hope you got the *** out of our hometown!
 
 e|--------------------------------------------------------------|
 B|--------------------------------------------------------------|
 G|--------------5--5--------------------------------------------|
 D|-3------5-----5--5---Pick slide-------------------------------|
 A|-3------5-----3--3--------------------------------------------|
 E|-1------3-----*--*--------------------------------------------|

Verse
 
 e|--------------------------------------------------------------|
 B|--------------------------------------------------------------|
 G|-5---5-------5---5--------------------------------------------|
 D|-5-3-5-5-3---5-3-5-5-3----------------------------------------|
 A|-3-3-3-5-3---3-3-3-5-3----------------------------------------|
 E|-*-1-*-3-1---*-1-*-3-1----------------------------------------|

* * * * * *
Pre chorus
 
 e|--------------------------------------------------------------|
 B|--------------------------------------------------------------|
 G|-5-----5------------------------------------------------------|
 D|-5--3--5--3--5--7?"-3 -----------------------------------------|
 A|-3--3--3--3--5--7--3------------------------------------------|
 E|-*--1--*--1--3--5?" 1------------------------------------------|

* * * *
Chorus
And I hope you got the *** out our home town
 
 e|--------------------------------------------------------------|
 B|--------------------------------------------------------------|
 G|-------5-5----------------------------------------------------|
 D|-3--5--5-5----------------------------------------------------|
 A|-3--5--3-3----------------------------------------------------|
 E|-1--3--*-*----------------------------------------------------|

Bridge
You know I can't count how many times I've heard people say...
 
 e|-------------------------------------------------------------|
 B|-------------------------------------------------------------|
 G|-------5-5-------5--4--2-------------------------------------|
 D|-3--5--5-5--3--5?"5--4--2--5----------------------------------|
 A|-3--5--3-3--3--5?"3--2--0--5----------------------------------|
 E|-1--3--*-*--1--3----------3----------------------------------|

* * * *
Where the hell were you back in the day?....
 
 e|-------------------------------------------------------------|
 B|-------------------------------------------------------------|
 G|-------5----------5-4-2--------------------------------------|
 D|-3--5--5--3--5----5-4-2-5-3-3--5-5---------------------------|
 A|-3--5--3--3--5----3-2-0-5-3-3--5-5---------------------------|
 E|-1--3--*--1--3----------3-1-1--3-3---------------------------|

* * * * * * * *
You have it
 
 Th-th-th-th-th-th-th-th this song goes out....
 e|-------------------------------------------------------------|
 B|-------------------------------------------------------------|
 G|-5-5-5-5-5-5-5-5-5-------------------------------------------|
 D|-5-5-5-5-5-5-5-5-5-------------------------------------------|
 A|-3-3-3-3-3-3-3-3-3-------------------------------------------|
 E|-------------------------------------------------------------|

Verse.. go palm muted where it says "For letting me take your car to the prom"
Pre chorus
Chorus repeated x2
Outro
 
 e|-------------------------------------------------------------|
 B|-------------------------------------------------------------|
 G|-5-5-4-2-2---------------------------------------------------|
 D|-5-5-4-2-2-3--------3-----------5---------------5\\-----------|
 A|-3-3-2-0-0-3--------3-----------5---------------5\\-----------|
 E|-----------1--------1-----------3---------------3\\-----------|


Important: The song above is NOT stored on the Chordie server. The original song is hosted at www.xguitar.com. Chordie works as a search engine and provides on-the-fly formatting. Chordie does not index songs against artists'/composers' will. To remove this song please click here.

Text color:
Chord color:
Chord grids: 
Font size:    
Page size: 

A C G Gm
Rate #4 of 7 versions

Jango Player

Login - add to songbook

SHARE PAGE  



You need to log in to post comments