Guitar Tabs, Chords and Lyrics
Major upgrade!! After one year development the new version of Chordie is now online! Please give feedback.


Scaring Myself   Bowling for Soup

 
 -------

 


 |Intro|


 

 
 -------

 


 Guitar 2 (G1 start)


 

 
 e|------------------|----------------|----------------------||
 B|------------------|----------------|----------------------||
 G|-9-9--------------|-9-9------------|-9-9------------------||
 D|-9-9-9-9-7-7-9---9|-9-9-9-9-7-7-9-9|-9-9-9-9-7-7-9--9--9--||
 A|-7-7-9-9-7-7-9---9|-7-7-9-9-7-7-9-9|-7-7-9-9-7-7-9--9--9--||
 E|-*-*-7-7-5-5-7---7|-*-*-7-7-5-5-7-7|-*-*-7-7-5-5-7--7--7--||

 


 * * * * * * * * * > * * * * > > >


 Guitar 1 2x


 

 
 e|------------------|------------------|----------------------||
 B|-9-10-9-12-9------|-9-10-9-12-9------|-9-10-9-12-9----------||
 G|#------------11-9-|-------------11-9-|-------------11-9-11-#||
 D|#-----------------|------------------|---------------------#||
 A|------------------|------------------|----------------------||
 E|------------------|------------------|----------------------||
 -------

 


 |Verse|


 

 
 -------
 e|--------------------------||--------------------------||
 B|--------------------------||--------------------------||
 G|#-9--9-------------------#||-9-9-------------99887766-||
 D|#-9--9--9--9--7--7--9--9-#||-9-9-9-9-7-7-9-9-99887766-||
 A|--7--7--9--9--7--7--9--9--||-7-7-9-9-7-7-9-9-77665544-||
 E|--*--*--7--7--5--5--7--7--||-----7-7-5-5-7-7----------||

 


 * * * * * *


 


 

 
 --------

 


 |Chorus|


 

 
 --------

 


 Guitar 2


 

 
 e|----------------------|---|----------------------------------||
 B|----------------------|---|----------------------------------||
 G|-----9-----9--------9-|-G-|-----9-----9----------------------||
 D|--7--9--7--9--7--9--9-|-1-|--7--9--7--9--7--9-11----7----9---||
 A|--7--7--7--7--7--9--7-|---|--7--7--7--7--7--9-11----7----9---||
 E|--5--*--5--*--5--7--*-|---|--5--*--5--*--5--7--9----5----7---||

 


 * * * * * * * * > > >


 


 Guitar 1


 

 
 e|-------12-----------------||
 B|--/9------9---------------||
 G|------------11-9----------||
 D|-----------------11-9-----||
 A|-----------------------12-||
 E|--------------------------||
 -------

 


 |Intro|


 

 
 -------

 


 Guitar 2


 

 
 e|----------------||
 B|----------------||
 G|-9-9------------||
 D|-9-9-9-9-7-7-9-9||
 A|-7-7-9-9-7-7-9-9||
 E|-*-*-7-7-5-5-7-7||

 


 * * * * *


 Guitar 1


 

 
 e|------------------|------------------|----------------------||
 B|-9-10-9-12-9------|-9-10-9-12-9------|-9-10-9-12-9----------||
 G|-------------11-9-|-------------11-9-|-------------11-9-11--||
 D|------------------|------------------|----------------------||
 A|------------------|------------------|----------------------||
 E|------------------|------------------|----------------------||
 -------

 


 |Verse|


 

 
 -------
 e|--------------------------||--------------------------||
 B|--------------------------||--------------------------||
 G|#-9--9-------------------#||-9-9-------------99887766-||
 D|#-9--9--9--9--7--7--9--9-#||-9-9-9-9-7-7-9-9-99887766-||
 A|--7--7--9--9--7--7--9--9--||-7-7-9-9-7-7-9-9-77665544-||
 E|--*--*--7--7--5--5--7--7--||-----7-7-5-5-7-7----------||

 


 * * * * * *


 


 

 
 --------

 


 |Chorus|


 

 
 --------

 


 Guitar 2


 

 
 e|----------------------|---|----------------------------------||
 B|----------------------|---|----------------------------------||
 G|-----9-----9--------9-|-G-|-----9-----9----------------------||
 D|--7--9--7--9--7--9--9-|-1-|--7--9--7--9--7--9-11----7----9---||
 A|--7--7--7--7--7--9--7-|---|--7--7--7--7--7--9-11----7----9---||
 E|--5--*--5--*--5--7--*-|---|--5--*--5--*--5--7--9----5----7---||

 


 * * * * * * * * > > >


 


 Guitar 1


 

 
 e|-------12-----------------||
 B|--/9------9---------------||
 G|------------11-9----------||
 D|-----------------11-9-----||
 A|-----------------------12-||
 E|--------------------------||
 --------

 


 |Bridge|


 

 
 --------

 


 Guitar 2 5x


 

 
 e|--------------------------||----------------------||
 B|--------------------------||----------------------||
 G|#-9----------------------#||--9-------------------||
 D|#-9-----9-----7-----9----#||--9-----9-----7---9---||
 A|--7-----9-----7-----9-----||--7-----9-----7---9---||
 E|--------7-----5-----7-----||--------7-----5---7---||

 


 pm.*...*.


 Guitar 1 5x


 

 
 e|-----------------------------------||-----------------||
 B|-----------------------------------||-----------------||
 G|#----9----------------------------#||-----9-----------||
 D|#--9---9-----9--------7-------9---#||---9---9-----9---||
 A|-7---------9---9----7---7---9---9--||-7---------9---9-||
 E|---------7--------5-------7--------||---------7-------||
 --------

 


 |Chorus|


 

 
 --------

 


 Guitar 2


 

 
 e|----------------------|---|----------------------------------||
 B|----------------------|---|----------------------------------||
 G|-----9-----9--------9-|-G-|-----9-----9----------------------||
 D|--7--9--7--9--7--9--9-|-1-|--7--9--7--9--7--9-11----7----9---||
 A|--7--7--7--7--7--9--7-|---|--7--7--7--7--7--9-11----7----9---||
 E|--5--*--5--*--5--7--*-|---|--5--*--5--*--5--7--9----5----7---||

 


 * * * * * * * * > > >


 


 Guitar 1


 

 
 e|-------12-----------------||
 B|--/9------9---------------||
 G|------------11-9----------||
 D|-----------------11-9-----||
 A|-----------------------12-||
 E|--------------------------||

 


 


 [-----]|End|


 [-----]  


 

 
 e|----------||
 B|----------||
 G|-------9--||


Important: The song above is NOT stored on the Chordie server. The original song is hosted at www.xguitar.com. Chordie works as a search engine and provides on-the-fly formatting. Chordie does not index songs against artists'/composers' will. To remove this song please click here.

This song is displayed as text-only. Transposing and tuning is only available for chordpro-songs.
Rate #3 of 4 versions

Jango Player

Login - add to songbook

SHARE PAGE  



You need to log in to post comments