Guitar Tabs, Chords and Lyrics
Major upgrade!! After one year development the new version of Chordie is now online! Please give feedback.


One Step Up  Bruce Springsteen

Song: One step up
Tabbed by: Morij@ofir.dk
 
 ----------------------------------------------------------

*capo 2nd fret
*ring open 1st string throughout
verse
[G] [D] [Em7] [D]  
 
 ----0------|----0------|----0------|----0------|
 --3----3-3-|--3----3-3-|--3----3-3-|--3----3-3-|
 ---0----0--|---2----2--|---0----0--|---2----2--|
 -----------|-----------|-----------|-----------|
 -----------|-----------|-----------|-----------|
 -3---------|-2---------|-0---------|-2---------|

[2x] [2x] [2x] [2x] 
chorus
[G] [D] [Em7] [D]  
 
 ----0------|----0------|----0------|----0------
 --3----3-3-|--3----3-3-|--3----3-3-|--3----3-3-
 ---0----0--|---2----2--|---0----0--|---2----2--
 -----------|-----------|-----------|-----------
 -----------|-----------|-----------|-----------
 -3---------|-2---------|-0---------|-2---------

[2x] [2x] once once
chorus cont'd
[G] [A7]  
 
 ----0------|----0-------
 --3----3-3-|--3----3-3--
 ---0----0--|---2----2---
 -----------|------------
 -----------|-0----------
 -3---------|------------

[3x] once
*back to top
lyrics (fairly close)
verse
[G]woke up this morning the house was cold....
[D]check the furnace, she wasn't burning....
[Em7]went out, hopped in my old ford...
[D]but the engine she ain't turning......
chorus
[G]giving each other some hard lessons lately...
[D]we ain't learnin....it was...
[Em7]same sad [D]story, that's a [G]fact......
[G]one step [A]up, and 2 steps [G]back.....

Important: The song above is NOT stored on the Chordie server. The original song is hosted at www.xguitar.com. Chordie works as a search engine and provides on-the-fly formatting. Chordie does not index songs against artists'/composers' will. To remove this song please click here.

Text color:
Chord color:
Chord grids: 
Font size:    
Page size: 

A A7 D Em7 G
Rate #8 of 11 versions

Jango Player

Login - add to songbook

SHARE PAGE  




You need to log in to post comments