Guitar Tabs, Chords and Lyrics
Major upgrade!! After one year development the new version of Chordie is now online! Please give feedback.


Waiting   CAKE

 
 ---------------------------------------------------|
 -2-2-2-2-2-2-232--2-2-2-2-2-2-2-2--2-2-2-2-2-2-2-2-|
 -2-2-2-2-2-2-222--1-1-1-1-1-1-1-1--0-0-0-0-0-0-0-0-|
 ---------------------------------------------------|
 ---------------------------------------------------|
 ---------------------------------------------------|

 


 [d] [d] [d] [d] [d] [d] [dud] [d] [d] [d] [d] [d] [d] [dud] [d] [d] [d] [d] [d] [d] [dud]  

 
 ---------------------------------------------------|
 -3-3-3-3-3-3-353-------------------2-2-2-2-2-2-232-|
 -2-2-2-2-2-2-222--2-2-2-2-2-2-2-2--2-2-2-2-2-2-222-|
 ------------------3-3-3-3-3-3-3-3------------------|
 ---------------------------------------------------|
 ---------------------------------------------------|

 


 [d] [d] [d] [d] [d] [d] [dud] [d] [d] [d] [d] [d] [d] [dud]  

 
 --------------------------------------------------|
 ------------------2-2-2-2-2-2-232-----------------|
 -1-1-1-1-1-1-121--2-2-2-2-2-2-222-----------------|
 -2-2-2-2-2-2-222----------------------------------|
 --------------------------------------------------|
 --------------------------------------------------|

 


 


 on the aaaaalways be waaaaitng part just repeat the last 4 chord sets.


 


 TIMING


 Here is a sample verse. I only wrote out the words


 on which the chords change. For simplicity's sake I did


 not record the quick changes.


 So............. important.........think that we make


 

 
 ---------------------------------------------------|
 -2-2-2-2-2-2-2-2--2-2-2-2-2-2-2-2--2-2-2-2-2-2-2-2-|
 -2-2-2-2-2-2-2-2--1-1-1-1-1-1-1-1--0-0-0-0-0-0-0-0-|
 ---------------------------------------------------|
 ---------------------------------------------------|
 ---------------------------------------------------|

 


 sense.......... think there's....better


 

 
 ---------------------------------------------------|
 -3-3-3-3-3-3-3-3-------------------2-2-2-2-2-2-2-2-|
 -2-2-2-2-2-2-2-2--2-2-2-2-2-2-2-2--2-2-2-2-2-2-2-2-|
 ------------------3-3-3-3-3-3-3-3------------------|
 ---------------------------------------------------|
 ---------------------------------------------------|

 


 other fence


 

 
 --------------------------------------------------|
 ------------------2-2-2-2-2-2-2-2-----------------|
 -1-1-1-1-1-1-1-1--2-2-2-2-2-2-2-2-----------------|
 -2-2-2-2-2-2-2-2----------------------------------|
 --------------------------------------------------|
 --------------------------------------------------|


Important: The song above is NOT stored on the Chordie server. The original song is hosted at www.xguitar.com. Chordie works as a search engine and provides on-the-fly formatting. Chordie does not index songs against artists'/composers' will. To remove this song please click here.

This song is displayed as text-only. Transposing and tuning is only available for chordpro-songs.
Rate #1 of 4 versions

Jango Player

Login - add to songbook

SHARE PAGE  




You need to log in to post comments