Guitar Tabs, Chords and Lyrics
Major upgrade!! After one year development the new version of Chordie is now online! Please give feedback.


Return to Flesh   Cannibal Corpse

 
 --------------------------------|
 --------------------------------|
 -------------------------------.|
 -------/9(9)\\---------/8(8)\\---.| 4 times
 -6-5-3-/7(7)\\---6-5-3-/6(6)\\----|
 -4-3-1-/7(7)\\---4-3-1-/6(6)\\----|

 


 . . . . . .


 


 Riff A


 1________________ 2_____________


 

 
 -------|------------------|------------------||
 -------|------------------|------------------||
 -------|------------------|-----------------.||
 -------|--3-----------2---|[6]----------[5]-.||
 -6-5-3-|-[5]--5---4--[4]--|-8---[8]-[7]--7---||
 -4-3-1-|-----[7]-[6]------|-----10---9-------||

 


 . . . !!!!!!!!!!!!!!!!!!!!!!!!!!!!!!!!!!!!


 


 


 Transition 1


 

 
 -------|
 -------|
 -------| (In fact the Intro riff is played 4 times
 -------| with riff AAA, but it is cut on the 4th time:

 


 -6-5-3-| play only the 3 first power palm muted chords)


 -4-3-1-|


 . . .


 


 Riff B (harmonisation on 3th and 4th time)


 

 
 --------------------------|---------------------------||
 --------------------------|---------------------------||
 --------------------------|---------------------------||
 --------------------------|---------------------------||
 -5p44-7p44----------------|-8p77-10p77----------------||
 -----------4p33-6p33------|------------7p66-9p66------||

 


 !!!! !!!! !!!! !!!! !!!! !!!! !!!! !!!!


 . .. . .. . .. . .. . .. . .. . .. . ..


 


 RIFF C (with voice) 1,2,3_______


 

 
 --------------------------------------------|-----------||
 --------------------------------------------|-----------||
 -------------------0-3-0--0-----------------|-----------||
 -------2-----------0-3-0--0-----2-----7-6-6-|-----------||
 -5-----0------------------------0-----5-4-4-|-----------||
 -3-0-0---0-0-0-0-0----------0-0---0-0-------|4p3h4p3-3--||

 


 . . . . . . . . . . . .


 on the 4th time go directly to riff D


 


 RIFF D (mix between Intro Riff & Riff A)


 1_______________________


 

 
 -------------------------------|------------------------|
 -------------------------------|------------------------|
 -------------------------------|------------------------|
 -------/9(9)\\---------/8(8)\\---|--------3-----------2---|
 -6-5-3-/7(7)\\---6-5-3-/6(6)\\---|-6-5-3-[5]--5---4--[4]--|
 -4-3-1-/7(7)\\---4-3-1-/6(6)\\---|-4-3-1-----[7]-[6]------|

 


 . . . . . . . . . !!!!!!!!!!!!!!!


 


 End of Riff D


 2_________________________


 

 
 --------------------------||
 --------------------------||
 --------------------------||
 --------[6]----------[5]--||
 --6-5-3--8---[8]-[7]--7---||
 --4-3-1------10---9-------||

 


 . . . !!!!!!!!!!!!!!!!


 


 RIFF E (pre-chorus, beware of the measure (5/4 for the tempo of riff D))


 


 

 
 ---------------------------|
 ---------------------------|In parenthesis there are
 ---------------------------|harmonisationsof times 5 to 8.
 ----(77)-------------(66)--|
 -6-5-88---6-5-2-------77---|
 -4-3------4-3-0-1/3\\1------|

 


 . . !! . . . !!


 


 RIFF F (chorus)


 1,2,3___


 

 
 -------------------|-------------|--------|| On 4th time
 -------------------|-------------|--------|| replace by
 -------------------|-------------|--------|| Transition 2
 -----5-------------|-----5-------|--------||
 -4-----4--7-4--5---|-4-----4--7-4|-5430---||
 ---3-------------4-|---3---------|--------||

 


 !!!!!!!!!!!!!!!!!!!!!!!!!!!!!!!!!!!!!!!!


 


 Transition 2


 

 
 --------|
 --------|
 --------|
 --------|

 


 -2-3-4--|


 -0-1-2--|


 . . .


 


 RIFF G (bridge)


 

 
 ---------------------------------------------------|
 ---------------------------------------------------|
 ---------------------------------------------------|
 ---------------------------------------------------|
 -5555552222228888885555554444441111114444444-------|
 --------------------------------------------333333-|

 


 !!!!!!!!!!!!!!!!!!!!!!!!!!!!!!!!!!!!!!!!!!!!!!!!!!


 


 Riff G (second part = harmonized two guitars)


 

 
 -------------------------------------------------------||
 -------------------------------------------------------||
 -------------------------------------------------------||
 -3333330000006666663333332222222222222-----------------||

 


 -55555522222288888855555544444444444441111111111111111-||


 

 
 --------------------------------------3333333333333333-||

 


 !!!!!!!!!!!!!!!!!!!!!!!!!!!!!!!!!!!!!!!!!!!!!!!!!!!!!


 


 RIFF H (outro)


 

 
 -----------------------------------||
 -----------------------------------||
 -----------------------------------||
 -----------------------------------||
 -------------------------------6\\5-||
 -0-0-5-6-0-0-5-6-000099993333--4\\3-||

 


 . . . . . . . . !!!!!!!!!!!!


 


 Conclusion riff


 

 
 --------||
 --------||
 --------||
 --------|| end of song


Important: The song above is NOT stored on the Chordie server. The original song is hosted at www.xguitar.com. Chordie works as a search engine and provides on-the-fly formatting. Chordie does not index songs against artists'/composers' will. To remove this song please click here.

This song is displayed as text-only. Transposing and tuning is only available for chordpro-songs.
Rate #3 of 9 versions

Login - add to songbook

SHARE PAGE  



You need to log in to post comments