Guitar Tabs, Chords and Lyrics
Major upgrade!! After one year development the new version of Chordie is now online! Please give feedback.


Tomorrow Belongs to Us   The Casualties

 
 Intro: -------------
 -------------
 -7-7-7-------
 -7-7-7-7-7-7-
 -5-5-5-7-7-7- x1
 -------5-5-5-
 Verse: ------------------------------------
 ------------------------------------
 -11-------9-------11-------9---11---
 -11---7---9---4---11---7---9---11--- x3
 --9---7---7---4----9---7---7----9---
 ------5-------2--------5------------
 Chorus: -------------------------
 -------------------------
 -7-----------7-------9---
 -7---7---2---7---7---9--- x2
 -5---7---2---5---7---7---
 -----5---0-------5-------

 


 


 Verse: x2


 Chorus: x2


 


 Play a quick: ----


 [----]  


 [-11-]  


 [-11-]  


 [--9-]---- right before the bass solo.


 


 Bass Solo.


 


 Then Play the verse chords but dont strum, just play each note once.


 


 Then play the Verse with palm muting:


 


 (* means palm mute x6)


 

 
 --------------------------------------------------------------
 --------------------------------------------------------------
 -11--11*---------9--9*---------11--11*---------9--9*--11--11*-
 -11--11---7--7*--9--9---4--4*--11--11---7--7*--9--9---11--11-- x1
 --9---9---7--7---7--7---4--4----9---9---7--7---7--7----9---9--
 ----------5--5----------2--2------------5--5------------------

 


 


 Chorus x2


 


 verse x2


 


 

 
 Then its: --------------
 --------------
 --11----------
 --11---9---4--
 ---9---9---4--
 -------7---2-- right before the bass drum/vocal solo.

 


 


 Pick Slide...


 


 Chorus x2


 


 

 
 Outro: ------------------------------
 ------------------------------
 --555-------------555-----11--
 --555-555-777-444-555-555-11--
 --777-555-777-444-777-555--9--
 ------777-999-222-----777-----


Important: The song above is NOT stored on the Chordie server. The original song is hosted at www.xguitar.com. Chordie works as a search engine and provides on-the-fly formatting. Chordie does not index songs against artists'/composers' will. To remove this song please click here.

This song is displayed as text-only. Transposing and tuning is only available for chordpro-songs.
Rate #3 of 4 versions

Login - add to songbook

SHARE PAGE  




You need to log in to post comments