Guitar Tabs, Chords and Lyrics
Major upgrade!! After one year development the new version of Chordie is now online! Please give feedback.


Triple Corpse Hammerblow  Children of Bodom

Band : Children Of Bodom
Album : Hate Crew Deathroll
Song : Triple Corpse Hammerblow
Label : Spinefarm
Tabber : Vader2
http://geocities.com/dark_interpretation dark_interpretation@yahoo.com
Tuning 1 Step Down
Intro 1
 
 |--------CU--CU--|CU--------------|--------CU--CU--|CU------CU--CU--|
 |--------15--10--|12~-------------|--------15--10--|12------15--14--|
 |--------17--12--|14--------------|--------17--12--|14------17--16--|
 |----------------|----------------|----------------|----------------|
 |----------------|----------------|----------------|----------------|
 |----------------|----------------|----------------|----------------|
 |CD--------------|----------------|----------------|----------------|
 |12~-------------|----------------|----------------|----------------|
 |14--------------|----------------|----------------|----------------|
 |----------------|----------------|----------------|----------------|
 |----------------|----------------|----------------|----------------|
 |----------------|----------------|----------------|----------------|

Intro 2
 
 |--------------------------------|----------------1212------------|
 |1212--------1212151512121212----|1212--------1212----12121212----|
 |----11111414----------------1414|----11111414----------------1414|
 |--------------------------------|--------------------------------|
 |--------------------------------|--------------------------------|
 |--------------------------------|--------------------------------|
 |------------12-0-0-010-0-0-0|9-0-0-0-7-0-0-0-5-0-0-0-8~~-----|
 |1212------------------------|--------------------------------|
 |----11111414----------------|--------------------------------|
 |----------------------------|--------------------------------|
 |----------------------------|--------------------------------|
 |----------------------------|--------------------------------|x2

[A]  
 
 |--------------------------------|----------------1212------------|
 |1212--------1212151512121212----|1212--------1212----12121212----|
 |----11111414----------------1414|----11111414----------------1414|
 |--------------------------------|--------------------------------|
 |--------------------------------|--------------------------------|
 |--------------------------------|--------------------------------|
 |------------12-0-0-010-0-0-0|9-0-0-0-7-0-0-0-5-0-0-0-8~~-----|
 |1212------------------------|--------------------------------|
 |----11111414----------------|--------------------------------|
 |----------------------------|--------------------------------|
 |----------------------------|--------------------------------|
 |----------------------------|--------------------------------|x2

[B]  
 
 |----------------|----------------|-------------------|-------------------|
 |----------------|----------------|-------------------|-------------------|
 |----------------|----------------|-9---8----9---11---|13---11----9---8---|
 |6---4---6-----7-|6---4---6-----7-|11---9---11---13---|14---13---11---9---|
 |4-442-224-44445-|4-442-224-44445-|-------------------|-------------------|
 |----------------|----------------|-------------------|-------------------|
 |----------------|----------------|-------------------|-------------------|
 |----------------|----------------|-------------------|-------------------|
 |----------------|----------------|-9---8----9---11---|13---11----9---8---|
 |6---4---6-----7-|6---4---6-----7-|11---9---11---13---|14---13---11---9---|
 |4-442-224-44445-|4-442-224-44445-|-------------------|-------------------|
 |----------------|----------------|-------------------|-------------------|
 |----------------|----------------|
 |----------------|----------------|
 |----------------|----------------|
 |----3-----5---6-|----5-6-----5---|
 |00001-00003-004-|00003-4-00003---|
 |----------------|----------------|

[A]  
 
 |--------------------------------|----------------1212------------|
 |1212--------1212151512121212----|1212--------1212----12121212----|
 |----11111414----------------1414|----11111414----------------1414|
 |--------------------------------|--------------------------------|
 |--------------------------------|--------------------------------|
 |--------------------------------|--------------------------------|
 |------------12-0-0-010-0-0-0|9-0-0-0-7-0-0-0-5-0-0-0-8~~-----|
 |1212------------------------|--------------------------------|
 |----11111414----------------|--------------------------------|
 |----------------------------|--------------------------------|
 |----------------------------|--------------------------------|
 |----------------------------|--------------------------------|x2

[B]  
 
 |----------------|----------------|-------------------|-------------------|
 |----------------|----------------|-------------------|-------------------|
 |----------------|----------------|-9---8----9---11---|13---11----9---8---|
 |6---4---6-----7-|6---4---6-----7-|11---9---11---13---|14---13---11---9---|
 |4-442-224-44445-|4-442-224-44445-|-------------------|-------------------|
 |----------------|----------------|-------------------|-------------------|
 |----------------|----------------|-------------------|-------------------|
 |----------------|----------------|-------------------|-------------------|
 |----------------|----------------|-9---8----9---11---|13---11----9---8---|
 |6---4---6-----7-|6---4---6-----7-|11---9---11---13---|14---13---11---9---|
 |4-442-224-44445-|4-442-224-44445-|-------------------|-------------------|
 |----------------|----------------|-------------------|-------------------|

Chorus
 
 |----------------|--------------------|----------------|----------------|
 |----------------|--------------------|----------------|----------------|
 |----------------|--------------------|----------------|----------------|
 |----8-----9---8-|----11-11-----------|----8-----9---8-|----444455667788|
 |66666-66666-666-|9999-9--9-----11-11-|66666-66666-666-|2222------------|
 |----------------|----------9999-9--9-|----------------|----------------|x2

[C]  
 
 |----------------|----------------|----------------|----------------|
 |----------------|----------------|----------------|----------------|
 |----------------|----------------|----------------|----------------|
 |----------------|----------------|----------------|----------------|
 |2-2-222-2-2-222-|----------------|2-2-222-2-2-222-|----------------|
 |0-0-000-0-0-000-|----------------|0-0-000-0-0-000-|----------------|
 |----------------|----------------|----------------|
 |----------------|----------------|----------------|
 |----------------|----------------|----------------|
 |----------------|----------------|5-5-555-4-4-444-|
 |2-2-222-2-2-222-|----------------|3-3-333-5-5-555-|
 |0-0-000-0-0-000-|----------------|----------------|
 |----------------|----------------|----------------|----------------|
 |----------------|----------------|----------------|----------------|
 |----------------|----------------|----------------|----------------|
 |----------------|----------------|----------------|----------------|
 |2------3--------|5-------6-------|2------3--------|5-------6-------|
 |0------1--------|3-------4-------|0------1--------|3-------4-------|
 |----------------|----------------|----------------|----------------|
 |----------------|----------------|----------------|----------------|
 |----------------|----------------|----------------|----------------|
 |----------------|----------------|----------------|----------------|
 |----------------|----------------|----------------|----------------|

|0000000011111111|3333333344444444|0000000011111111|3333333344444444|
Solo 1
 
 |-------812108--------------| _4_ __4_-----------|
 |-----10------121081012108--|||| ||| ||----------|
 |----9--------------------10|9791097 ||----------|
 |--10-----------------------|-------10910-7-9----|
 |12-------------------------|-----------------10-|
 |---------------------------|--------------------|x2
 |----5975--------| __ __ --------|
 |---7----9757975-|||||||||--------|
 |--6------------7|646764||--------|
 |-7--------------|------767-4-6---|
 |9---------------|--------------7-|
 |----------------|----------------|x2
 |----------------|----------------|----------------|
 |7~--------------|----------------|----------------|
 |----------------|----------------|----------------|
 |----------------|--------7-------|--------7---4---|
 |----------------|--------5---2---|4-------5---2---|
 |----------------|------------0---|2---------------|
 |----------------|----------------|
 |----------------|----------------|
 |----------------|----------------|
 |9---9-9-9-9-9-9-|9-9-9-9-55555---|
 |7---7-7-7-7-7-7-|7-7-7-7-33333---|
 |0---------------|----------------|

[A]  
 
 |--------------------------------|----------------1212------------|
 |1212--------1212151512121212----|1212--------1212----12121212----|
 |----11111414----------------1414|----11111414----------------1414|
 |--------------------------------|--------------------------------|
 |--------------------------------|--------------------------------|
 |--------------------------------|--------------------------------|
 |------------12-0-0-010-0-0-0|9-0-0-0-7-0-0-0-5-0-0-0-8~~-----|
 |1212------------------------|--------------------------------|
 |----11111414----------------|--------------------------------|
 |----------------------------|--------------------------------|
 |----------------------------|--------------------------------|
 |----------------------------|--------------------------------|x4

[C]  
 
 |----------------|Arm-------------|----------------|Arm-------------|
 |----------------|Hram------------|----------------|Harm------------|
 |----------------|7---------------|----------------|5---5-5-5---5---|
 |----------------|----------------|----------------|----------------|
 |2-2-222-2-2-222-|----------------|2-2-222-2-2-222-|----------------|
 |0-0-000-0-0-000-|----------------|0-0-000-0-0-000-|----------------|
 |----------------|1517------------1514~--|----------------|
 |----------------|1517xx1715------ |-----|----------------|
 |----------------| | ||| | |161415 |14---|----------------|
 |----------------| 4 | | | | | |-----|5-5-555-4-4-444-|
 |2-2-222-2-2-222-|---------3-----3-------|3-3-333-5-5-555-|
 |0-0-000-0-0-000-|-----------------------|----------------|

Solo 2
 
 |12~----13~------|15~-----16~-----|
 |15CU---16CU-----|18CU----19CU----|
 |----------------|----------------|
 |----------------|----------------|
 |----------------|----------------|
 |----------------|----------------|
 |1211109109-------------------|-------------------------------|
 | | | ||---1312131211101110---|----------------- __4__--------|
 |---4---------- | | | |---1312|131211101110---- | | | |-------|
 |------------------4----------| | | | |----1413141312111211109|
 |-----------------------------|----4--------------------------|
 |-----------------------------|-------------------------------|
 |----1215161512--|----1316171613--|----1417181714--|----1518191815--|
 |--13----t-----13|--14----t-----14|--15----t-----15|--16----t-----16|
 |12--------------|13--------------|14--------------|15--------------|

| | | | | | | | || | | | | | | | || | | | | | | | || | | | | | | | ||
 
 |-------8--------|-------8--------|-------8--------|-------8--------|
 |----------------|----------------|----------------|----------------|
 |----1619201916--|----1720212017--|----1821222118--|----1922232219--|
 |--17----t-----17|--18----t-----18|--19----t-----19|--20----t-----20|
 |16--------------|17--------------|18--------------|19--------------|

| | | | | | | | || | | | | | | | || | | | | | | | || | | | | | | | ||
 
 |-------8--------|-------8--------|-------8--------|-------8--------|
 |----------------|----------------|----------------|----------------|

>Tr.with Tapping (Pick)
|xxxxxxxxxxxxxxxx|xxxxxxxxxxxxxxxx|
 
 |tr--------------|tr--------------|
 |----------------|----------------|
 |----------------|----------------|
 |----------------|----------------|
 |----------------|----------------|

Chorus
 
 |----------------|--------------------|----------------|----------------|
 |----------------|--------------------|----------------|----------------|
 |----------------|--------------------|----------------|----------------|
 |----8-----9---8-|----11-11-----------|----8-----9---8-|----444455667788|
 |66666-66666-666-|9999-9--9-----11-11-|66666-66666-666-|2222------------|
 |----------------|----------9999-9--9-|----------------|----------------|x2
 |----------------|----------------|----------------|----------------|
 |----------------|----------------|----------------|----------------|
 |----------------|----------------|----------------|----------------|
 |----------------|----------------|----------------|----------------|
 |2------3--------|5-------6-------|2------3--------|5-------6-------|
 |0------1--------|3-------4-------|0------1--------|3-------4-------|
 |----------------|----------------|----------------|----------------|
 |----------------|----------------|----------------|----------------|
 |----------------|----------------|----------------|----------------|
 |----------------|----------------|----------------|----------------|
 |----------------|----------------|----------------|----------------|

|0000000011111111|3333333344444444|0000000011111111|3333333344444444|
[B]  
 
 |----------------|----------------|-------------------|-------------------|
 |----------------|----------------|-------------------|-------------------|
 |----------------|----------------|-9---8----9---11---|13---11----9---8---|
 |6---4---6-----7-|6---4---6-----7-|11---9---11---13---|14---13---11---9---|
 |4-442-224-44445-|4-442-224-44445-|-------------------|-------------------|
 |----------------|----------------|-------------------|-------------------|
 |----------------|----------------|-------------------|-------------------|
 |----------------|----------------|-------------------|-------------------|
 |----------------|----------------|-9---8----9---11---|13---11----9---8---|
 |6---4---6-----7-|6---4---6-----7-|11---9---11---13---|14---13---11---9---|
 |4-442-224-44445-|4-442-224-44445-|-------------------|-------------------|
 |----------------|----------------|-------------------|-------------------|

Outro
 
 |----------------|----------------|----------------|----------------|
 |----------------|----------------|----------------|----------------|
 |----------------|----------------|----------------|----------------|
 |----------------|----------------|----------------|----------------|
 |2-2-222-2-2-222-|----------------|2-2-222-2-2-222-|----------------|
 |0-0-000-0-0-000-|----------------|0-0-000-0-0-000-|----------------|
 |----------------|----------------|----------------|----------------|
 |----------------|----------------|----------------|----------------|
 |----------------|----------------|----------------|--------------6~|
 |6-6-666-6-6-666-|----------------|6-6-666-6-6-666-|6-6-666-6-6-666~|
 |4-4-444-4-4-444-|----------------|4-4-444-4-4-444-|4-4-444-4-4-444-|
 |----------------|----------------|----------------|----------------|

[End]  
. - palm mute / - slide up to
\ - slide down to ~ - vibrato
" - tremelo picking () - ghost note
p - pull off h - hammer-on
tr - trill notes fb - full bend (1step)
< > - harmonic

Important: The song above is NOT stored on the Chordie server. The original song is hosted at www.xguitar.com. Chordie works as a search engine and provides on-the-fly formatting. Chordie does not index songs against artists'/composers' will. To remove this song please click here.

Text color:
Chord color:
Chord grids: 
Font size:    
Page size: 

A B C
Rate #2 of 2 versions

Login - add to songbook

SHARE PAGE  




You need to log in to post comments