Guitar Tabs, Chords and Lyrics
Server problems seems to be fixed. Chordie has been experiencing problems with songs disappearing. These issues now seems to be fixed, but still verifying the fix. If you find anything strange, please email admin@chordie.com.


The Voice Within  Christina Aguilera

Christina Aguilera - The voice within
Tabbed By: melol
Email: merelientjuh@msn.com
Tuning: Standard (E A D G B E)
Christina Aguilera - The voice within
Intro:
 
 E|------------------------|| \
 B|------3--------3-1-0----|| \
 G|----0--------0----------|| \repeat 2x
 D|------------------------|| /
 A|------------------------|| /
 E|--3--------3------------|| /

Verse:
 
 E|-----3-------3-------3-------3-------3-------3-------3-------3----||
 B|-----3-------3-------3-------3-------3-------3-------3-------3----||
 G|---0-------0-------0-------0-------0-------0-------2-------2------||
 D|-------------------------------------------------0-------0--------||
 A|---------------------------------3-------3------------------------||
 E|-3-------3-------3-------3----------------------------------------||
 E|-----3-------3-------3-------3-------3-------3-------3-------3----||
 B|-----3-------3-------3-------3-------3-------3-------3-------3----||
 G|---0---0---0---0---0---0---0---0---0---0---0---0---2---2---2---2--||
 D|-------------------------------------------------0-------0--------||
 A|---------------------------------3-------3------------------------||
 E|-3-------3-------3-------3----------------------------------------||

Pre-chorus:
 
 E|---3----3----3----3------||\
 B|---3----3----3----3------|| \
 G|---0----0----0----2------|| \
 D|----------------0--------|| /repeat 3x
 A|------3----2-------------|| /
 E|-0---------------------- ||/
 E|---3----3----0----3------||
 B|---3----3----1----3------||
 G|---0----0----0----2------||
 D|----------------0--------||
 A|------3----0-------------||
 E|-0-----------------------||

Chorus:
 
 E|----3----3----0----1----0----0----3----3---||
 B|----3----4----0----0----2----2----4----3---||
 G|----0----0----0----0----0----0----5----2---||
 D|-------------------------------------0-----||
 A|---------------------0----0-----0----------||
 E|-3----3----3----3--------------------------||
 E|-------------------||\
 B|-----3-------3-1-0-|| \
 G|---0---0---0-------|| \
 D|-------------------|| /repeat 2x
 A|-------------------|| /
 E|-3-------3---------||/

Verse 1x
Pre-chorus
Chorus
Bridge:
 
 E|----0-----2-----0-----0-----0----2-----0-----0--||
 B|----0-----0-----0-----2-----0----0-----0-----2--||
 G|----0-----2-----0-----2-----0----2-----0-----2--||
 D|------------------------------------------------||
 A|-------2------------0-----------2----------0----||
 E|-0-----------3------------0----------3----------||
 E|----0-----2----0-----0-----0-----0------2-----2---||
 B|----0-----0----2-----2-----2-----1------0-----0---||
 G|----0-----2----0-----2-----2-----0------2-----2---||
 D|--------------------------------------------------||
 A|--------2----------0-----0-----3------2-----2-----||
 E|-0------------0-----------------------------------||

Chorus:
 
 E|---0-----2-----0-----0-----2-----2-----1-----0---||\
 B|---2-----2-----0-----2-----3-----3-----1-----0---|| \
 G|---2-----2-----2-----0-----4-----4-----2-----1---|| \
 D|-------------------------------------------------|| /
 A|-0-----0-----0-----0-----2-----2-----------------|| /
 E|-------------------------------------1-----0-----||/
 E|---0---||
 B|---2---||
 G|---2---||
 D|-------||
 A|-------||
 E|-0-----||

[A]Young girl don't cry I'll be right here when you're world starts to
fa[D]ll [E] oo[D]hh
Tabbed by Stacey Adamson
Email: stace_grl@hotmail.com
[G]Young girl don't cry
I'll be right here when your world starts to [Cadd9]fall[D]
[G]Young girl it's alright
Your tears will dry, you'll soon be free to [Cadd9]fly[D]
[Em]When you're safe inside your roo[C]m you tend to dr[G]eam[D]
[Em]Of a place where nothing's hard[C]er than it [G]seems[D]
[Em]No one ever wants or bot[C]hers to [G]explain[D]
[Em]Of the heartache[C] life can bring and what it [Am]means[D]
Chorus:
[G]When there's no one [Cm]else, look inside yo[G]urself[G7]
[A]Like your oldest friend just tru[Cm]st the voice wit[D]hin
[G]Then you'll find the str[Cm]ength that will [G]guide yo[G7]ur way
[A]You'll learn to begin to[Cm] trust the voice[D] within
[G]Young girl don't hide
You'll never change if you just [Cadd9]run away[D]
[G]Young girl just hold tight
Soon you're gonna see your brigh[Cadd9]ter day[D]
[Em]Now in a world where innocence i[C]s quickly claime[G]d[D]
[Em]It's so hard to stand your groun[C]d when you're so[G] afraid[D]
[Em]No one reaches out a han[C]d for you to hol[G]d[D]
[Em]When you look ou[C]tside look inside to you[Am]r soul[D]
Chorus:
[G]When there's no one [Cm]else, look inside yo[G]urself[G7]
[A]Like your oldest friend just tru[Cm]st the voice wit[D]hin
[G]Then you'll find the str[Cm]ength that will [G]guide yo[G7]ur way
[A]You'll learn to begin to[Cm] trust the voice[D] within
[Em]Life is [B]a journe[Em/G]y[A]
It can take you anywhere you choose to go
As long as you're learning
You'll find all you'll ever need to know
(be strong)
You'll break it
(hold on)
You'll make it
Just don't forsake it because
[C]No one can tell you what you can't do
No one can stop you, you[B] know that I'm talking to you
Chorus:
[A]When there's no one [Dm]else, look inside yo[G/A]urself[A]
[B]Like your oldest friend just tru[Dm]st the voice wit[E]hin
[A]Then you'll find the[Dm] strength that will [G/A]guide yo[A]ur way
[B]You'll learn to begin to trust t[Dm]he voice within[E]
[A]Young girl don't cry
I'll be right here when your world start[D]s to fall[E]

Important: The song above is NOT stored on the Chordie server. The original song is hosted at www.xguitar.com. Chordie works as a search engine and provides on-the-fly formatting. Chordie does not index songs against artists'/composers' will. To remove this song please click here.

Text color:
Chord color:
Chord grids: 
Font size:    
Page size: 

A Am B C Cadd9 Cm D Dm E Em G G7
Rate #1 of 9 versions

Login - add to songbook

SHARE PAGE  



You need to log in to post comments