Guitar Tabs, Chords and Lyrics
Major upgrade!! After one year development the new version of Chordie is now online! Please give feedback.


Welcome Home  Coheed and Cambria

As recorded by Coheed And Cambria
(From the 2005 Album GOOD APOLLO, I'M BURNING STAR IV - VOLUME 1: FROM FEAR THROUGH THE EYES OF MADNESS)
Words and Music by Coheed And Cambria
Transcribed by Paul A. Dechant
Gtr I (Eb Ab Db Gb Bb Eb) - 'Gtr. 1 (acous.)'
Gtr II (Eb Ab Db Gb Bb Eb) - 'Gtr. 2 (elec. w/dist.)'
Gtr III (Eb Ab Db Gb Bb Eb) - 'Gtr. 3 (elec. w/dist.)'
Gtr IV (Eb Ab Db Gb Bb Eb) - 'Gtr. 4 (elec. w/dist.)'
Intro
Moderately Q=79
N.C. D F#EmD
[4/4] Gtr I
 
 PM------| ~ PM------------------------------| ~ PM--------|

E X X T S E S S E S S S S S S E X X T S E S S e e e E
 
 ||------------------------------------|------------------------------||
 ||o-----------------------------------|-----------------------------o||
 ||-------------7----------------------|--------------7---------------||
 ||--------9-10---10-9-7-7-10-9-7------|---------9-10---10-9-4-7-5-4--||
 ||o-----7------------------------10-9-|-(7)---7-------------5-9-7-5-o||
 ||--0-0-------------------------------|--0--0------------------------||

N.C. D F#EmD
Gtr II
~ ~ ~~
E X X T S E S S E S S S S S S E X X T S E S S e e e E
 
 |-----------------------------------|----------------------------|
 |-----------------------------------|----------------------------|
 |------------7----------------------|------------7---------------|
 |-------9-10---10-9-7-7-10-9-7------|-------9-10----10-9-4-7-5-4-|
 |-----7------------------------10-9-|-----7--------------5-9-7-5-|
 |-0-0-------------------------------|-0-0------------------------|

|
| Gtr III
| W e E H.
 
 |-----------------------------------|----------------------------|
 |-----------------------------------|----------------------------|
 |-----------------------------------|----------------------------|
 |-----------------------------------|----------------------------|
 |-2---------------------------------|-2--------------------------|
 |-0---------------------------------|-0--------------------------|

N.C.
Gtr IV
<
W
 
 |----------------------------------------------|
 |----------------------------------------------|
 |----------------------------------------------|
 |----------------------------------------------|
 |-[9]------------------------------------------|
 |----------------------------------------------|

|
| Gtr II
| ~~~ ~~~~
| E X X T S E S S E S S S S S S
 
 |----------------------------------------------|
 |----------------------------------------------|
 |----------------[7]---------------------------|
 |---------[9]-10-----10-9-7----7-10-[9]-7------|
 |-------7---------------------------------10-9-|
 |--0--0----------------------------------------|

|
| Gtr III
| H H
 
 |----------------------------------------------|
 |----------------------------------------------|
 |----------------------------------------------|
 |-------------------------0tr2-----------------|
 |--2-------------------------------------------|
 |--0-------------------------------------------|

+W[D] [F#EmD]
 
 |--------------------------------||
 |--------------------------------||
 |--------------------------------||
 |--------------------------------||
 |-(9)----------------------------||
 |--------------------------------||

|
| ~~
| E X X T S E S S e e e E
 
 |--------------------------------||
 |--------------------------------||
 |----------------7---------------||
 |---------[9]-10----10-9-4-7-5-4-||
 |-------7----------------5-9-7-5-||
 |--0--0--------------------------||

|
| e E H.
 
 |--------------------------------||
 |--------------------------------||
 |--------------------------------||
 |--------------------------------||
 |--2-----------------------------||
 |--0-----------------------------||

[B5G/B] [B5] [G/B] [B5] [EsEm2A5/Em] [EsEs2] [EsEm2A5/Em] [EsEs2]  
 
 PM-------| ~~~PM-------| ~~~ PM-----------| ~~~ PM---------| ~~~

S S S S e E S S S S e E S S S S S S E S S S S S S E
 
 ||----------------------------------|----------------------------------------||
 ||o---------------------------------|---------------------------------------o||
 ||----------------------------------|----------------------------------------||
 ||----------------------------------|----------------------------------------||
 ||o---9-10---10-[9]---9-10---10-[9]-|---9-10-12-10-9-[7]---9-10-12-10-9-[7]-o||
 ||--0-7--7----7-----0-7--7----7-----|-0-0--0--0--0-0-----0-0--0--0--0-0------||

|
 
 | PM-------| PM-------| PM-----------| PM-----------|

| S S S S e E S S S S e E S S S S S S E S S S S S S E
 
 ||----------------------------------|----------------------------------------||
 ||o---------------------------------|---------------------------------------o||
 ||----------------------------------|----------------------------------------||
 ||----------------------------------|----------------------------------------||
 ||o---9-10---10--9----9-10---10--9--|---9-10-12-10-9--7----9-10-12-10-9--7--o||
 ||--0-7--7----7--7--0-7--7----7--7--|-0-0--0--0--0-0--0--0-0--0--0--0-0--0---||

N.C. D F#EmD
~~~ ~~~ ~~~
E X X T S E S S E S S S S S S E X X T S E S S e e e E
 
 |---------------------------------------|-----------------------------|
 |---------------------------------------|-----------------------------|
 |------------[7]------------------------|------------[7]--------------|
 |-------9-10-----10-9-[7]-7-10-9-7------|-------9-10-----10-9-4-7-5-4-|
 |-----7----------------------------10-9-|-----7---------------5-9-7-5-|
 |-0-0-----------------------------------|-0-0-------------------------|

|
| W e E H.
 
 |---------------------------------------|-----------------------------|
 |---------------------------------------|-----------------------------|
 |---------------------------------------|-----------------------------|
 |---------------------------------------|-----------------------------|
 |-2-------------------------------------|-2---------------------------|
 |-0-------------------------------------|-0---------------------------|

N.C.
Gtr IV
<
W
 
 |--------------------------------------------|
 |--------------------------------------------|
 |--------------------------------------------|
 |--------------------------------------------|
 |-[9]----------------------------------------|
 |--------------------------------------------|

|
| Gtr II
| ~~~ ~~~~
| E X X T S E S S E S S S S S S
 
 |--------------------------------------------|
 |--------------------------------------------|
 |----------------[7]-------------------------|
 |---------[9]-10-----10-9-7----7-10-9-7------|
 |-------7-------------------------------10-9-|
 |--0--0--------------------------------------|

|
| Gtr III
| H H
 
 |--------------------------------------------|
 |--------------------------------------------|
 |--------------------------------------------|
 |-------------------------0tr2---------------|
 |--2-----------------------------------------|
 |--0-----------------------------------------|

+W[D]
 
 |----------------------------------|
 |----------------------------------|
 |----------------------------------|
 |----------------------------------|
 |-(9)------------------------------|
 |----------------------------------|

|
| ~~
| E X X T S E S S Q +E E
 
 |----------------------------------|
 |----------------------------------|
 |----------------7-----------------|
 |---------[9]-10----10-9-7--(7)\-4-|
 |-------7------------------------5-|
 |-[0]-0----------------------------|

|
| e E H.
 
 |----------------------------------|
 |----------------------------------|
 |----------------------------------|
 |----------------------------------|
 |--2-------------------------------|
 |--0-------------------------------|

Gt[B5G/B]r II[B5] [G/B] [B5] [EsEm2A5/Em] [EsEs2] [EsEm2A5/Em] [EsEs2]
 
 PM-------| ~~~PM-------| ~~~ PM-----------| ~~~ PM---------| ~~~

S S S S e E S S S S e E S S S S S S E S S S S S S E
 
 ||----------------------------------|----------------------------------------||
 ||o---------------------------------|---------------------------------------o||
 ||----------------------------------|----------------------------------------||
 ||----------------------------------|----------------------------------------||
 ||o---9-10---10-[9]---9-10---10-[9]-|---9-10-12-10-9-[7]---9-10-12-10-9-[7]-o||
 ||--0-7--7----7-----0-7--7----7-----|-0-0--0--0--0-0-----0-0--0--0--0-0------||

|
| Gtr III
 
 | PM-------| PM-------| PM-----------| PM-----------|

| S S S S e E S S S S e E S S S S S S E S S S S S S E
 
 ||----------------------------------|----------------------------------------||
 ||o---------------------------------|---------------------------------------o||
 ||----------------------------------|----------------------------------------||
 ||----------------------------------|----------------------------------------||
 ||o---9-10---10--9----9-10---10--9--|---9-10-12-10-9--7----9-10-12-10-9--7--o||
 ||--0-7--7----7--7--0-7--7----7--7--|-0-0--0--0--0-0--0--0-0--0--0--0-0--0---||

Verses
$
[E5]Gtrs II, III
S S S S S S S S S S S S S S S S
 
 ||----------------------------------|
 ||o---------------------------------|
 ||----------------------------------|
 ||--9-9-9---9-9-9---9-9-9---9-9-9---|
 ||o-7-7-7---7-7-7---7-7-7---7-7-7---|
 ||----------------------------------|

[C/E] S S S S S S S S S S S S S S S S
 
 |----------------------------------------------|
 |----------------------------------------------|
 |----------------------------------------------|
 |-10-10-10---10-10-10---10-10-10---10-10-10----|
 |--7--7--7----7--7--7----7--7--7----7--7--7----|
 |----------------------------------------------|

[F#m]Gtr IV[E5] [D5]
S S S S S S S S S S S S S S S S S S S S S S S S S S S S S E.
 
 |---------------------------------|--------------------------------||
 |---------------------------------|-------------------------------o||
 |-0-0-0---0-0-0---0-0-0---0-0-0---|--------------------------------||
 |-7-7-7---7-7-7---7-7-7---7-7-7---|-9-9-9---9-9-9---9-9-9-9-9-7----||
 |-9-9-9---9-9-9---9-9-9---9-9-9---|-7-7-7---7-7-7---7-7-7-7-7-5---o||
 |---------------------------------|--------------------------------||

|
| Gtrs II, III
| S S S S S S S S S S S S S S S S S S S S S S S S S S S S S E.
 
 |---------------------------------|--------------------------------||
 |---------------------------------|-------------------------------o||
 |---------------------------------|--------------------------------||
 |-7-7-7---7-7-7---7-7-7---7-7-7---|-9-9-9---9-9-9---9-9-9-9-9-7----||
 |-9-9-9---9-9-9---9-9-9---9-9-9---|-7-7-7---7-7-7---7-7-7-7-7-5---o||
 |---------------------------------|--------------------------------||

[E5]Gtr II
S S E E E S S E S S E
 
 ||----------------------------------|
 ||o---------------------------------|
 ||----------------------------------|
 ||------4---5---4-----------2-2-----|
 ||o-----------------5-5-2-------2---|
 ||--0-0-----------------------------|

|
| Gtrs III, IV
| S S S S S S S S S S S S S S S S
 
 ||----------------------------------|
 ||o---------------------------------|
 ||----------------------------------|
 ||--9-9-9---9-9-9---9-9-9---9-9-9---|
 ||o-7-7-7---7-7-7---7-7-7---7-7-7---|
 ||----------------------------------|

[C/E] S S E E E S S E S S E
 
 |----------------------------------------------|
 |----------------------------------------------|
 |----------------------------------------------|
 |--------4----5-----4---------------2--2-------|
 |-/3--3------------------5--5--2----------2----|
 |----------------------------------------------|

|
| S S S S S S S S S S S S S S S S
 
 |----------------------------------------------|
 |----------------------------------------------|
 |----------------------------------------------|
 |-10-10-10---10-10-10---10-10-10---10-10-10----|
 |--7--7--7----7--7--7----7--7--7----7--7--7----|
 |----------------------------------------------|

To Coda
[F#m]Gtr II[E5] [D5]
S S E E E E E E E S S E E E E E S E.
 
 |------------------------------------|-----------------------------------||
 |------------------------------------|----------------------------------o||
 |------------------------------------|-----------------------------------||
 |------9---10---9---7----------------|------9---10---9---7---------------||
 |-/7-7------------------10---9---7---|-/7-7------------------10---9S5---o||
 |------------------------------------|-----------------------------------||

|
| Gtr IV
| S S S S S S S S S S S S S S S S S S S S S S S S S S S S S E.
 
 |------------------------------------|-----------------------------------||
 |------------------------------------|----------------------------------o||
 |--0-0-0----0-0-0---0-0--0---0-0-0---|-----------------------------------||
 |--7-7-7----7-7-7---7-7--7---7-7-7---|--9-9-9----9-9-9---9-9--9-9-9-7----||
 |--9-9-9----9-9-9---9-9--9---9-9-9---|--7-7-7----7-7-7---7-7--7-7-7-5---o||
 |------------------------------------|-----------------------------------||

|
| Gtr III
| S S S S S S S S S S S S S S S S S S S S S S S S S S S S S E.
 
 |------------------------------------|-----------------------------------||
 |------------------------------------|----------------------------------o||
 |------------------------------------|-----------------------------------||
 |--7-7-7----7-7-7---7-7--7---7-7-7---|--9-9-9----9-9-9---9-9--9-9-9-7----||
 |--9-9-9----9-9-9---9-9--9---9-9-9---|--7-7-7----7-7-7---7-7--7-7-7-5---o||
 |------------------------------------|-----------------------------------||

1st Chorus
[F5]Gtr IV[(A5)F5] [(A5)]
PM| PM| PM| PM|
S S S S S S E S S S S S S E
 
 |-------15-----------13----------12-----------13--------|
 |----10-------10--------------10-------10---------------|
 |-10-------10--------------10-------10------------------|
 |-------------------------------------------------------|
 |-------------------------------------------------------|
 |-------------------------------------------------------|

|
| Gtr III
 
 | PM---| PM ~~~ PM---| PM ~~~~~~~

| S S S S S a a E. S S S S S a a E.
 
 |-------------------------------------------------------|
 |-------------------------------------------------------|
 |--------------------[2]----------------------[2]-------|
 |--3--3--3---------x--------3--3--3---------x-----------|
 |--3--3--3-----3-x----------3--3--3-----3-x-------------|
 |--1--1--1------------------1--1--1---------------------|

|
| Gtr II
 
 | PM---| PM ~~~ PM---| PM ~~~~~~~

| S S S S S a a E. S S S S S a a E.
 
 |-------------------------------------------------------|
 |-------------------------------------------------------|
 |--------------------[2]----------------------[2]b2.5---|
 |--3--3--3---------x--------3--3--3---------x-----------|
 |--3--3--3-----3-x----------3--3--3-----3-x-------------|
 |--1--1--1------------------1--1--1---------------------|

[F5] PM| PM| [(A5)] PM[F5]|
S S S S S S E S S E S S E
 
 |-------15-----------13----------12---13p12-------|
 |----10-------10--------------10------------13----|
 |-10-------10--------------10---------------------|
 |-------------------------------------------------|
 |-------------------------------------------------|
 |-------------------------------------------------|

|
 
 | PM---| PM ~~~ PM-----------| PM

| S S S S S a a E. S S S S S S S S
 
 |-------------------------------------------------|
 |-------------------------------------------------|
 |--------------------[2]--------------------------|
 |--3--3--3---------x--------3--3----3--3--3----3--|
 |--3--3--3-----3-x----------3--3----3--3--3----3--|
 |--1--1--1------------------1--1----1--1--1----1--|

|
 
 | PM---| PM ~~~ PM-----------| PM

| S S S S S a a E. S S S S S S S S
 
 |-------------------------------------------------|
 |-------------------------------------------------|
 |--------------------[2]--------------------------|
 |--3--3--3---------x--------3--3----3--3--3----3--|
 |--3--3--3-----3-x----------3--3----3--3--3----3--|
 |--1--1--1------------------1--1----1--1--1----1--|

Gtr[Am] IV[C]
~~
a W W
 
 |--------------|-------|
 |-12s13--------|-------|
 |--------------|-------|
 |--------------|-------|
 |--------------|-------|
 |--------------|-------|

|
| Gtrs I, II, III
| W W
 
 |----^0--------|-^0----|
 |----^1--------|-^1----|
 |----^2--------|-^0----|
 |----^2--------|-^2----|
 |----^0--------|-^3----|
 |--------------|-------|

[F5]Gtr IV[(A5)] [F5] [(A5)F5]
PM| PM| PM| PM|
S S S S S S E S S S S S S E
 
 |-------15-----------13----------12-----------13--------|
 |----10-------10--------------10-------10---------------|
 |-10-------10--------------10-------10------------------|
 |-------------------------------------------------------|
 |-------------------------------------------------------|
 |-------------------------------------------------------|

|
| Gtr III
 
 | PM---| PM ~~~ PM---| PM ~~~~~~~

| S S S S S a a E. S S S S S a a E.
 
 |-------------------------------------------------------|
 |-------------------------------------------------------|
 |--------------------[2]----------------------[2]-------|
 |--3--3--3---------x--------3--3--3---------x-----------|
 |--3--3--3-----3-x----------3--3--3-----3-x-------------|
 |--1--1--1------------------1--1--1---------------------|

|
| Gtr II
 
 | PM---| PM ~~~ PM---| PM ~~~~~~~

| S S S S S a a E. S S S S S a a E.
 
 |-------------------------------------------------------|
 |-------------------------------------------------------|
 |--------------------[2]----------------------[2]b2.5---|
 |--3--3--3---------x--------3--3--3---------x-----------|
 |--3--3--3-----3-x----------3--3--3-----3-x-------------|
 |--1--1--1------------------1--1--1---------------------|

PM| PM| [(A5)] PM[F5]|
S S S S S S E S S E S S E
 
 |-------15-----------13--------------12---13p12-------|
 |----10-------10------------------10------------13----|
 |-10-------10------------------10---------------------|
 |-----------------------------------------------------|
 |-----------------------------------------------------|
 |-----------------------------------------------------|

|
 
 | PM---| PM ~~~~~~~ PM-----------| PM

| S S S S S a a E. S S S S S S S S
 
 |-----------------------------------------------------|
 |-----------------------------------------------------|
 |--------------------[2]------------------------------|
 |--3--3--3---------x------------3--3----3--3--3----3--|
 |--3--3--3-----3-x--------------3--3----3--3--3----3--|
 |--1--1--1----------------------1--1----1--1--1----1--|

|
 
 | PM---| PM ~~~~~~~ PM-----------| PM

| S S S S S a a E. S S S S S S S S
 
 |-----------------------------------------------------|
 |-----------------------------------------------------|
 |--------------------[2]b2.5--------------------------|
 |--3--3--3---------x------------3--3----3--3--3----3--|
 |--3--3--3-----3-x--------------3--3----3--3--3----3--|
 |--1--1--1----------------------1--1----1--1--1----1--|

D.S. al Coda
Gtr[Am] IV[C]
~~
a W H. E +E
 
 |--------------|---------------------||
 |-12s13--------|----------15b17-(15)-||
 |--------------|---------------------||
 |--------------|---------------------||
 |--------------|---------------------||
 |--------------|---------------------||

|
| Gtrs I, II, III
| W W
 
 |----^0--------|-^0------------------||
 |----^1--------|-^1------------------||
 |----^2--------|-^0------------------||
 |----^2--------|-^2------------------||
 |----^0--------|-^3------------------||
 |--------------|---------------------||

2nd Chorus
&
[F5]Gtr IV[(A5)] [F5] [(A5)]
PM| PM| PM| PM|
S S S S S S E S S S S S S E
 
 |-------15-----------13---------------------12-----------13-----------|
 |----10-------10-------------------------10-------10------------------|
 |-10-------10-------------------------10-------10---------------------|
 |---------------------------------------------------------------------|
 |---------------------------------------------------------------------|
 |---------------------------------------------------------------------|

|
| Gtr III
 
 | PM---| PM PM---| PM

| S S S S S a a S +S +S S S S S S a a E +S
 
 |---------------------------------------------------------------------|
 |---------------------------------------------------------------------|
 |--------------------[2]b3==(2)r(2)----------------------[2]pb4r==(2)-|
 |--3--3--3---------x-------------------3--3--3---------x--------------|
 |--3--3--3-----3-x---------------------3--3--3-----3-x----------------|
 |--1--1--1-----------------------------1--1--1------------------------|

|
| Gtr II
 
 | PM---| PM PM---| PM

| S S S S S a a S +S +T T S S S S S a a E +S
 
 |---------------------------------------------------------------------|
 |---------------------------------------------------------------------|
 |---------------------2b3===(2)r(2)p0---------------------2pb4r===(2)-|
 |--3--3--3---------x-------------------3--3--3---------x--------------|
 |--3--3--3-----3-x---------------------3--3--3-----3-x----------------|
 |--1--1--1-----------------------------1--1--1------------------------|

[F5] PM| PM| [(A5)] PM|[F5]
S S S S S S E S S E S S E
 
 |-------15-----------13---------------------12---13p12------|
 |----10-------10-------------------------10------------13---|
 |-10-------10-------------------------10--------------------|
 |-----------------------------------------------------------|
 |-----------------------------------------------------------|
 |-----------------------------------------------------------|

|
 
 | PM---| PM PM-----------| PM

| S S S S S a a S +S +S S S S S S S S S
 
 |-----------------------------------------------------------|
 |-----------------------------------------------------------|
 |--------------------[2]b3==(2)r(2)-------------------------|
 |--3--3--3---------x-------------------3--3----3--3--3----3-|
 |--3--3--3-----3-x---------------------3--3----3--3--3----3-|
 |--1--1--1-----------------------------1--1----1--1--1----1-|

|
 
 | PM---| PM PM-----------| PM

| S S S S S a a S +S +T T S S S S S S S S
 
 |-----------------------------------------------------------|
 |-----------------------------------------------------------|
 |---------------------2b3===(2)r(2)p0-----------------------|
 |--3--3--3---------x-------------------3--3----3--3--3----3-|
 |--3--3--3-----3-x---------------------3--3----3--3--3----3-|
 |--1--1--1-----------------------------1--1----1--1--1----1-|

Gtr[Am] IV[C]
~~
a W W
 
 |--------------|-------|
 |-12s13--------|-------|
 |--------------|-------|
 |--------------|-------|
 |--------------|-------|
 |--------------|-------|

|
| Gtrs I, II, III
| W W
 
 |----^0--------|-^0----|
 |----^1--------|-^1----|
 |----^2--------|-^0----|
 |----^2--------|-^2----|
 |----^0--------|-^3----|
 |--------------|-------|

[F5]Gtr IV[(A5)] [F5] [(A5)]
PM| PM| PM| PM|
S S S S S S E S S S S S S E
 
 |-------15-----------13-----------------12-----------13-------------|
 |----10-------10---------------------10-------10--------------------|
 |-10-------10---------------------10-------10-----------------------|
 |-------------------------------------------------------------------|
 |-------------------------------------------------------------------|
 |-------------------------------------------------------------------|

|
| Gtr III
 
 | PM---------| PM---------|

| S S S S S a a E +S S S S S S a a S +S +S
 
 |-------------------------------------------------------------------|
 |-------------------------------------------------------------------|
 |--------------------[2]pb4r==(2)--------------------[2]b4==(2)r(2)-|
 |--3--3--3---------x---------------3--3--3---------x----------------|
 |--3--3--3-----3-x-----------------3--3--3-----3-x------------------|
 |--1--1--1-------------------------1--1--1--------------------------|

|
| Gtr II
 
 | PM---| PM PM---| PM

| S S S S S a a E +S S S S S S a a S +S +S
 
 |-------------------------------------------------------------------|
 |-------------------------------------------------------------------|
 |--------------------[2]pb4r==(2)--------------------[2]b4==(2)r(2)-|
 |--3--3--3---------x---------------3--3--3---------x----------------|
 |--3--3--3-----3-x-----------------3--3--3-----3-x------------------|
 |--1--1--1-------------------------1--1--1--------------------------|

[F5] PM| PM| [(A5)] PM|[F5]
S S S S S S E S S E S S E
 
 |-------15-----------13---------------------12---13p12-------|
 |----10-------10-------------------------10------------13----|
 |-10-------10-------------------------10---------------------|
 |------------------------------------------------------------|
 |------------------------------------------------------------|
 |------------------------------------------------------------|

|
 
 | PM---| PM PM-----------| PM

| S S S S S a a S +S +S S S S S S S S S
 
 |------------------------------------------------------------|
 |------------------------------------------------------------|
 |--------------------[2]b5==(2)r(2)--------------------------|
 |--3--3--3---------x-------------------3--3----3--3--3----3--|
 |--3--3--3-----x-x---------------------3--3----3--3--3----3--|
 |--1--1--1-----------------------------1--1----1--1--1----1--|

|
 
 | PM---| PM PM-----------| PM

| S S S S S a a S +S +T T S S S S S S S S
 
 |------------------------------------------------------------|
 |------------------------------------------------------------|
 |--------------------[2]b5==(2)r(2)p0------------------------|
 |--3--3--3---------x-------------------3--3----3--3--3----3--|
 |--3--3--3-----3-x---------------------3--3----3--3--3----3--|
 |--1--1--1-----------------------------1--1----1--1--1----1--|

Gtr[Am] IV[C]
~~
a W W
 
 |--------------|-------||
 |-12s13--------|-------||
 |--------------|-------||
 |--------------|-------||
 |--------------|-------||
 |--------------|-------||

|
| Gtrs I, II, III
| W W
 
 |----^0--------|-^0----||
 |----^1--------|-^1----||
 |----^2--------|-^0----||
 |----^2--------|-^2----||
 |----^0--------|-^3----||
 |--------------|-------||

Bridge
[F5]Gtr II[A5]
E S E. S E. S E. S S E S E. S E. S E. S S
 
 |-----5--------8--------5--------10---|-----8--------12--------8--------12---|
 |-------------------------------------|--------------------------------------|
 |-------------------------------------|--------------------------------------|
 |-------------------------------------|--------------------------------------|
 |-------------------------------------|--------------------------------------|
 |-------------------------------------|--------------------------------------|

|
| Gtr III
 
 | PM| PM---| PM---| PM---| PM----| PM---| PM---| PM---| PM

| S S S S S S S S S S S S S S S S S S S S S S S S S S S S S S S S
 
 |-------------------------------------|--------------------------------------|
 |-------------------------------------|--------------------------------------|
 |-------------------------------------|--------------------------------------|
 |-3-3---3--3-3---3--3-3---3--3-3----3-|-7-7---7--7-7----7--7-7---7--7-7----7-|
 |-3-3---3--3-3---3--3-3---3--3-3----3-|-7-7---7--7-7----7--7-7---7--7-7----7-|
 |-1-1---1--1-1---1--1-1---1--1-1----1-|-5-5---5--5-5----5--5-5---5--5-5----5-|

[G5]E S E. S E. S E. S S [F5]E S E. S E. S E. S S
 
 |-----7--------10--------7--------10---|-----5--------8--------5--------8---|
 |--------------------------------------|------------------------------------|
 |--------------------------------------|------------------------------------|
 |--------------------------------------|------------------------------------|
 |--------------------------------------|------------------------------------|
 |--------------------------------------|------------------------------------|

|
 
 | PM| PM---| PM---| PM---| PM----| PM---| PM---| PM---| PM

| S S S S S S S S S S S S S S S S S S S S S S S S S S S S S S S S
 
 |--------------------------------------|------------------------------------|
 |--------------------------------------|------------------------------------|
 |--------------------------------------|------------------------------------|
 |-5-5---5--5-5----5--5-5---5--5-5----5-|-3-3---3--3-3---3--3-3---3--3-3---3-|
 |-5-5---5--5-5----5--5-5---5--5-5----5-|-3-3---3--3-3---3--3-3---3--3-3---3-|
 |-3-3---3--3-3----3--3-3---3--3-3----3-|-1-1---1--1-1---1--1-1---1--1-1---1-|

[F5]Gtr II[A5]
E S E. S E. S E. S S E S E. S E. S E. S S
 
 |-----5--------8--------5--------8---|-----8--------12--------8--------12---|
 |-----x--------x--------x--------x---|-----x---------x--------x---------x---|
 |-----2--------5--------2--------5---|-----5---------9--------5---------9---|
 |------------------------------------|--------------------------------------|
 |------------------------------------|--------------------------------------|
 |------------------------------------|--------------------------------------|

|
| Gtr IV
| W W
 
 |------------------------------------|--------------------------------------|
 |------------------------------------|--------------------------------------|
 |------------------------------------|--------------------------------------|
 |-3----------------------------------|-7------------------------------------|
 |-3----------------------------------|-7------------------------------------|
 |-1----------------------------------|-5------------------------------------|

|
| Gtr III
 
 | PM----------------------------------------------------------------------|

| S S S S S S S S S S S S S S S S S S S S S S S S S S S S S S S S
 
 |------------------------------------|--------------------------------------|
 |------------------------------------|--------------------------------------|
 |------------------------------------|--------------------------------------|
 |-3-3-3-3--3-3-3-3--3-3-3-3--3-3-3-3-|-7-7-7-7--7-7--7-7--7-7-7-7--7-7--7-7-|
 |-3-3-3-3--3-3-3-3--3-3-3-3--3-3-3-3-|-7-7-7-7--7-7--7-7--7-7-7-7--7-7--7-7-|
 |-1-1-1-1--1-1-1-1--1-1-1-1--1-1-1-1-|-5-5-5-5--5-5--5-5--5-5-5-5--5-5--5-5-|

[G5]E S E. S E. S E. S S
 
 |-----7--------10--------7--------10---|
 |-----x---------x--------x---------x---|
 |-----4---------7--------4---------7---|
 |--------------------------------------|
 |--------------------------------------|
 |--------------------------------------|

|
| W
 
 |--------------------------------------|
 |--------------------------------------|
 |--------------------------------------|
 |-5------------------------------------|
 |-5------------------------------------|
 |-3------------------------------------|

|
 
 | PM------------------------------------

| S S S S S S S S S S S S S S S S
 
 |--------------------------------------|
 |--------------------------------------|
 |--------------------------------------|
 |-5-5-5-5--5-5--5-5--5-5-5-5--5-5--5-5-|
 |-5-5-5-5--5-5--5-5--5-5-5-5--5-5--5-5-|
 |-3-3-3-3--3-3--3-3--3-3-3-3--3-3--3-3-|

[F5]E S E. S S T T T T E Q
 
 |-----5--------5---15p12----15p12\------------||
 |-----x--------x---------15-------------------||
 |-----2--------2------------------------------||
 |---------------------------------------------||
 |---------------------------------------------||
 |---------------------------------------------||

|
| <
| W
 
 |---------------------------------------------||
 |---------------------------------------------||
 |---------------------------------------------||
 |-3-------------------------------------------||
 |-3-------------------------------------------||
 |-1-------------------------------------------||

|
 
 |------------------------------------|

| S S S S S S S S S S S S S E.
 
 |---------------------------------------------||
 |---------------------------------------------||
 |---------------------------------------------||
 |-3-3-3-3--3-3-3-3--3-----3-----3--3-3--------||
 |-3-3-3-3--3-3-3-3--3-----3-----3--3-3--------||
 |-1-1-1-1--1-1-1-1--1-----1-----1--1-1-/(22)\-||

Guitar Solos
[E5]Gtr II
~~~
 
 |---3---| |---3---| |---3---| |---3---| |---3---| |---3---|

S S S S S S S S S S S S S S S S S S S E.
 
 |------------------------------------------------------------------------------|
 |-15p12------15p12------15p12------15p12------15p12------15p12------15s17------|
 |---------14---------14---------14---------14---------14---------14------------|
 |------------------------------------------------------------------------------|
 |------------------------------------------------------------------------------|
 |------------------------------------------------------------------------------|

|
| Gtrs III, IV
| S S S S S S S S S S S S S S S S
 
 |------------------------------------------------------------------------------|
 |------------------------------------------------------------------------------|
 |------------------------------------------------------------------------------|
 |--9----9-----9----------9----9-----9----------9----9-----9----------9--9--9---|
 |--7----7-----7----------7----7-----7----------7----7-----7----------7--7--7---|
 |------------------------------------------------------------------------------|

[C/E] E S S S +E S E E E S S
 
 |-17b19----17-15-15b17r(15)----------------------------------|
 |------------------------------17-17\----------------15-17---|
 |---------------------------------------------/16------------|
 |------------------------------------------------------------|
 |------------------------------------------------------------|
 |------------------------------------------------------------|

|
| S S S S S S S S S S S S S S S S
 
 |------------------------------------------------------------|
 |------------------------------------------------------------|
 |------------------------------------------------------------|
 |-10----10-10----10-----10--10----10--10-10----10-10-10------|
 |--7-----7--7-----7------7---7-----7---7--7-----7--7--7------|
 |------------------------------------------------------------|

[F#m]Gtr II
S +S S S S S S S S S S S S S T T T T
 
 |------------17-17-------------------------------------------|
 |-17-(17)b19-------19-20-20-17-19-19-15-17-17-13-12h13p12----|
 |---------------------------------------------------------14-|
 |------------------------------------------------------------|
 |------------------------------------------------------------|
 |------------------------------------------------------------|

|
| Gtr IV
| S S S S S S S S S S S S S S S S
 
 |------------------------------------------------------------|
 |------------------------------------------------------------|
 |--0---0------0-----0--0--0-----0--0--0-----0--0--0----------|
 |--7---7------7-----7--7--7-----7--7--7-----7--7--7----------|
 |--9---9------9-----9--9--9-----9--9--9-----9--9--9----------|
 |------------------------------------------------------------|

|
| Gtr III
| S S S S S S S S S S S S S S S S
 
 |------------------------------------------------------------|
 |------------------------------------------------------------|
 |------------------------------------------------------------|
 |--7---7------7-----7--7--7-----7--7--7-----7--7--7----------|
 |--9---9------9-----9--9--9-----9--9--9-----9--9--9----------|
 |------------------------------------------------------------|

[E5] ~~[D5]
S S S S S S +S S a H
 
 |---------------------------------------------|
 |-12\-8-10-11-12-12-(12)/---------------------|
 |---------------------------------------------|
 |---------------------------12h14-------------|
 |---------------------------------------------|
 |---------------------------------------------|

|
| S S S S S S S S S S S S S E.
 
 |---------------------------------------------|
 |---------------------------------------------|
 |---------------------------------------------|
 |--9--9--9-----9--9---9---------9-9-9-9-9-7---|
 |--7--7--7-----7--7---7---------7-7-7-7-7-5---|
 |---------------------------------------------|

|
| S S S S S S S S S S S S S E.
 
 |---------------------------------------------|
 |---------------------------------------------|
 |---------------------------------------------|
 |--9--9--9-----9--9---9---------9-9-9-9-9-7---|
 |--7--7--7-----7--7---7---------7-7-7-7-7-5---|
 |---------------------------------------------|

[E5]Gtr III
~~~~~~~
 
 |---3---| |-----3------|

S S S E +E. S +Q S S T T +E T T
 
 |-----------------------------------------------------------------------|
 |---------15-15b17---(15)-----15b17r(15)--------------------------15h17-|
 |-14h16--------------------------------------16p==14-16s17-(17)---------|
 |-----------------------------------------------------------------------|
 |-----------------------------------------------------------------------|
 |-----------------------------------------------------------------------|

|
| Gtrs II, IV
| S S S S S S S S S S S S S S S S
 
 |-----------------------------------------------------------------------|
 |-----------------------------------------------------------------------|
 |-----------------------------------------------------------------------|
 |--9----9-----9--------9--9-9---------9--9-9----------9------9--9-------|
 |--7----7-----7--------7--7-7---------7--7-7----------7------7--7-------|
 |-----------------------------------------------------------------------|

[C/E]  
 
 ~~~~ PM---------| ~~~~~~~~~~~
 |---3----| |-3-|

+E +E. S +E. S S S S E +E T T
 
 |--------------------------------------------------------------------------|
 |-(17)b20----(17)------17b20r(17)------------------------------------------|
 |-----------------------------------------------------[12]----(12)----x-0--|
 |--------------------------------------------------10-----------------x----|
 |-----------------------------------------10----12-------------------------|
 |--------------------------------------10----------------------------------|

|
| S S S S S S S S S S S S S S S S
 
 |--------------------------------------------------------------------------|
 |--------------------------------------------------------------------------|
 |--------------------------------------------------------------------------|
 |--10-----10--10----10-10-----10----10-10----10------------10--10--10------|
 |---7------7---7-----7--7------7-----7--7-----7-------------7---7---7------|
 |--------------------------------------------------------------------------|

[F#m] ~~ PM--|
 
 |--3---| |---3---|

S S S S S S Q +E S S S s. T T T
 
 |-------------------------------------------------------|
 |-------------------------------------------------------|
 |-16p12p==0-12h14---------------------------------------|
 |-------------------16-12-------(12)s==0---0-2----4h5p4s|
 |----------------------------------------0--------------|
 |-------------------------------------------------------|

|
| Gtr IV
| S S S S S S S S S S S S S S S S
 
 |-------------------------------------------------------|
 |-------------------------------------------------------|
 |--0----0----0----------0-0-0-----0--0-0---0-0--0-------|
 |--7----7----7----------7-7-7-----7--7-7---7-7--7-------|
 |--9----9----9----------9-9-9-----9--9-9---9-9--9-------|
 |-------------------------------------------------------|

|
| Gtr II
| S S S S S S S S S S S S S S S S
 
 |-------------------------------------------------------|
 |-------------------------------------------------------|
 |-------------------------------------------------------|
 |--7----7----7----------7-7-7-----7--7-7---7-7--7-------|
 |--9----9----9----------9-9-9-----9--9-9---9-9--9-------|
 |-------------------------------------------------------|

[E5] ~[D5]
 
 |---3---|

S S S E e e E +E S S E.
 
 |------------------------------------|
 |------------------------------------|
 |------------------------------------|
 |-2p0-x-----2---4---5---(5)---4p2-0--|
 |------------------------------------|
 |------------------------------------|

|
| S S S S S S S S S S S S S E.
 
 |------------------------------------|
 |------------------------------------|
 |------------------------------------|
 |-9-9-9---9-9-9-------9--9--9-9-9-7--|
 |-7-7-7---7-7-7-------7--7--7-7-7-5--|
 |------------------------------------|

|
| S S S S S S S S S S S S S E.
 
 |------------------------------------|
 |------------------------------------|
 |------------------------------------|
 |-9-9-9---9-9-9-------9--9--9-9-9-7--|
 |-7-7-7---7-7-7-------7--7--7-7-7-5--|
 |------------------------------------|

[E5]Gtr II
~
T T T T T T T T T T S S S S T T E Q
 
 |--------7h8h10p8p7h8p7----7----------------------|
 |-7h8h10----------------10---10-8-7h8p7---7-------|
 |-------------------------------------------------|
 |-------------------------------------------------|
 |-------------------------------------------------|
 |-------------------------------------------------|

|
| Gtrs III, IV
| S S S S S S S S S S S S S S S S
 
 |-------------------------------------------------|
 |-------------------------------------------------|
 |-------------------------------------------------|
 |-9----9---9--------9----9-9----9-9---9---9-9-9---|
 |-7----7---7--------7----7-7----7-7---7---7-7-7---|
 |-------------------------------------------------|

[C/E] ~~ ~~
S +S +E Q S +S +E Q
 
 |--------------------------------------------------------|
 |--------------------------------------------------------|
 |--9-(9)b11r(9)---------------9b11==(9)r(9)--------------|
 |------------------9---------------------------9---------|
 |--------------------------------------------------------|
 |--------------------------------------------------------|

|
| S S S S S S S S S S S S S S S S
 
 |--------------------------------------------------------|
 |--------------------------------------------------------|
 |--------------------------------------------------------|
 |-10-10-----10----10-10-10---10-----10--10----10-10-10---|
 |--7--7------7-----7--7--7----7------7---7-----7--7--7---|
 |--------------------------------------------------------|

[F#m]Gtr II
~~ ~~
E S S T T S E T T S E S E +S
 
 |-17pb19---17-15-17p15-------------------------------------|
 |----------------------17-17---17p15-----------------------|
 |------------------------------------16-16---16p14---(14)\-|
 |----------------------------------------------------------|
 |----------------------------------------------------------|
 |----------------------------------------------------------|

|
| Gtr IV
| S S S S S S S S S S S S S S S S
 
 |----------------------------------------------------------|
 |----------------------------------------------------------|
 |--0-----0--0-----0-----0--0----0-----0--0----0--0-0-------|
 |--7-----7--7-----7-----7--7----7-----7--7----7--7-7-------|
 |--9-----9--9-----9-----9--9----9-----9--9----9--9-9-------|
 |----------------------------------------------------------|

|
| Gtr III
| S S S S S S S S S S S S S S S S
 
 |----------------------------------------------------------|
 |----------------------------------------------------------|
 |----------------------------------------------------------|
 |--7-----7--7-----7-----7--7----7-----7--7----7--7-7-------|
 |--9-----9--9-----9-----9--9----9-----9--9----9--9-9-------|
 |----------------------------------------------------------|

[E5] [D5] ~~~
S S S S S S S S S S S S S E.
 
 |-------------------------------------------|
 |-------------------------------------------|
 |-9s11-11-11-11s12-12-12-12s14-14-14-14s16--|
 |-x-----x--x--x-----x--x--x-----x--x--x-----|
 |-7s=9--9--9--9s10-10-10-10s12-12-12-12s14--|
 |-------------------------------------------|

|
| S S S S S S S S S S S S S E.
 
 |-------------------------------------------|
 |-------------------------------------------|

Important: The song above is NOT stored on the Chordie server. The original song is hosted at www.xguitar.com. Chordie works as a search engine and provides on-the-fly formatting. Chordie does not index songs against artists'/composers' will. To remove this song please click here.

Text color:
Chord color:
Chord grids: 
Font size:    
Page size: 

A5 Am B5 C C/E D D5 E5 F#m F5 G/B G5
Rate #8 of 9 versions

Jango Player

Login - add to songbook

SHARE PAGE  




You need to log in to post comments