Guitar Tabs, Chords and Lyrics
Major upgrade!! After one year development the new version of Chordie is now online! Please give feedback.


33  Coheed and Cambria

Performed by | COHEED AND CAMBRIA
Song | 33 (Coheed and Cambria) from the album THE SECOND STAGE TURBINE BLADE
Contact me @ | thebrokenbiscuit@hotmail.com
Tuning | Drop D / D, A, D, G, B, e (both guitars)
If you print this tab out, copy and paste everything to notepad then cut out all the unnecessary crap.
This probably isn't incredibly accurate but it is useful if you want to work it out accurately.
*KEY*
r - ring
. . . . - palm mute
/ \ - slide up or slide down
GUITAR ONE PARTS (W/ DIST. FOR WHOLE SONG)
INTRO/VERSE
[A#5]  
 
 -|----------------|----------------|----------------|----------------|
 -|----------------|----------------|----------------|----------------|
 -|----------------|----------------|----------------|----------------|
 -|3-3-3-3-3---3-3-|3-3-3---3---3---|3-3-3-3-3---3-3-|3-3-3---3---3---|
 -|1-1-1-1-1---1-1-|1-1-1---1---1---|1-1-1-1-1---1-1-|1-1-1---1---1---|
 -|----------------|----------------|----------------|----------------|

. . . . . . . . . . . . . . . . . . . . <-<- only do this in verse
except for a small part on the second verse
[F#5/C#]  
 
 -|----------------|----------------|----------------|----------------|
 -|----------------|----------------|----------------|----------------|
 -|----------------|----------------|----------------|----------------|
 -|6r--------------|----------------|6r--------------|----------------|
 -|4r--------------|----------------|4r--------------|----------------|
 -|4r--------------|----------------|4r--------------|----------------|

FIRST CHORUS
[C#5] [G#5] [A#5] [C#5] [F#5]  
 
 -|----------------|----------------|----------------|----------------|
 -|----------------|----------------|----------------|----------------|
 -|----------------|----------------|----------------|----------------|
 -|6---6---6-6-6---|----------------|----------------|6-6-------------|
 -|4---4---4-4-4---|6---6-6---6---6-|8---8---8-8-8---|4-4-4-4---4---4-|
 -|----------------|6---6-6---6---6-|8---8---8-8-8---|----4-4---4---4-|

[C#5] [G#5] [A#5] [F#5/C#]  
 
 -|----------------|----------------|----------------|----------------|
 -|----------------|----------------|----------------|----------------|
 -|----------------|----------------|----------------|----------------|
 -|6---6---6-6-6---|----------------|6r--------------|----------------|
 -|4---4---4-4-4---|6---6-6---6---8-|4r--------------|----------------|
 -|----------------|6---6-6---6---8-|4r--------------|----------------|

SECOND CHORUS
[C#5] [G#5] [A#5] [C#5] [F#5]  
 
 -|----------------|----------------|----------------|----------------|
 -|----------------|----------------|----------------|----------------|
 -|----------------|----------------|----------------|----------------|
 -|6---6---6-6-6---|----------------|----------------|6-6-------------|
 -|4---4---4-4-4---|6---6-6---6---6-|8---8---8-8-8---|4-4-4-4---4---4-|
 -|----------------|6---6-6---6---6-|8---8---8-8-8---|----4-4---4---4-|

[C#5] [G#5] [A#5] [F#5/C#]  
 
 -|----------------|----------------|----------------|----------------|
 -|----------------|----------------|----------------|----------------|
 -|----------------|----------------|----------------|----------------|
 -|6---6---6-6-6---|----------------|6-6-6---6-6-6---|6-6-6-6---6---6-|
 -|4---4---4-4-4---|6---6-6---6---8-|4-4-4---4-4-4---|4-4-4-4---4---4-|
 -|----------------|6---6-6---6---8-|4-4-4---4-4-4---|4-4-4-4---4---4-|

POST-CHORUS RIFF
[F#5/C#]  
 
 -|----------------|----------------|
 -|----------------|----------------|
 -|----------------|----------------|
 -|----------------|----------------|
 -|4-4-4---4-4-4---|4-4-4-4---4---4-|
 -|4-4-4---4-4-4---|4-4-4-4---4---4-|

INTERLUDE
[C#5] [C5] [F5] [A#5] [F5] [F#5/C#]  
 
 -|----------------|----------------|----------------|----------------|
 -|----------------|----------------|----------------|----------------|
 -|----------------|----------------|----------------|----------------|
 -|6---5---3---3---|3---------------|6-6-6-6-6-6-6-6-|6-6-6-6-6-6-6-6-| 4 TIMES
 -|4---3---3---1---|1---3-----------|4-4-4-4-4-4-4-4-|4-4-4-4-4-4-4-4-|
 -|----------------|----1-----------|4-4-4-4-4-4-4-4-|4-4-4-4-4-4-4-4-|

[F#5/C#]  
 
 -|----------------|----------------|
 -|----------------|----------------|
 -|----------------|----------------|
 -|6-6-6-6-6-6-6-6-|6-6-6-6-6-6-6-6-| 2 TIMES
 -|4-4-4-4-4-4-4-4-|4-4-4-4-4-4-4-4-|
 -|4-4-4-4-4-4-4-4-|4-4-4-4-4-4-4-4-|

ORDER
INTRO 2 TIMES
VERSE 4 TIMES
FIRST CHORUS
VERSE 3 TIMES
SECOND CHORUS 2 TIMES
POST-CHORUS RIFF
INTERLUDE
SECOND CHORUS
FIRST CHORUS
SECOND CHORUS END ON F#5.
GUITAR 2 PARTS (W/ DIST. FOR WHOLE SONG)
Some of the riffs on this guitar vary every time they are played so I just tabbed them so you get the general idea and
there is room for freestyling.
INTRO
 
 -|----------------|----------------|------------1/--|9-----9---9---9-|
 -|----------------|----------------|------------1/--|----9---9---9---|
 -|----------------|----------------|----------------|----------------|
 -|3-3-3-3-3---3-4-|3-------3-3-----|3-3-3-3-3-------|----------------|
 -|1-1-------------|--4-1-------1-1-|1-1-------------|----------------|
 -|----------------|----------------|----------------|----------------|
 -|----------------|13b-----13b-----|13h14p13b-------|13b-----13b-----|
 -|----------------|----14------14--|----------------|----14------14--|
 -|----------------|----------------|----------------|----------------|
 -|----------------|----------------|----------------|----------------|
 -|----------------|----------------|----------------|----------------|
 -|----------------|----------------|----------------|----------------|

VERSE
 
 -|----------------|----------------|----------------|----------------|
 -|----------------|----------------|----------------|----------------|
 -|----------------|----------------|----------------|----------------|
 -|3-3-3-3-3---3-4-|3-------3-3-----|3-3-3-3-3---3-4-|3-------3-3-----|
 -|1-1-------------|--4-1-------1-1-|1-1-------------|--4-1-------1-1-|
 -|----------------|----------------|----------------|----------------|

[F#5]  
 
 -|----------------|----------------|----------------|----------------|
 -|----------------|----------------|----------------|----------------|
 -|----------------|----------------|----------------|----------------|
 -|----------------|----------------|----------------|----------------|
 -|4-4-4-4-4-4-4-4-|4-4-4-4-4-4-4-4-|4-4-4-4-4-4-4-4-|4-4-4-4-4-4-4-4-|
 -|4-4-4-4-4-4-4-4-|4-4-4-4-4-4-4-4-|4-4-4-4-4-4-4-4-|4-4-4-4-4-4-4-4-|

CHORUS
 
 -|--------4-2-1---|----------------|4-4-6-4-6-6-4-6-|4-4-6-4-6-4-6-4-|
 -|2---2---------4-|4-4-4---4-4-4-4-|----------------|----------------|
 -|----------------|----------------|----------------|----------------|
 -|----------------|----------------|----------------|----------------|
 -|----------------|----------------|----------------|----------------|
 -|----------------|----------------|----------------|----------------|

VERSE VARIANT
 
 -|----------------|----------------|------------1/--|9-----9---9---9-|
 -|----------------|----------------|------------1/--|----9---9---9---|
 -|----------------|----------------|----------------|----------------|
 -|----------------|----------------|----------------|----------------|
 -|----------------|----------------|----------------|----------------|
 -|----------------|----------------|----------------|----------------|
 -|----------------|----------------|----------------|----------------|
 -|----------------|----------------|----------------|----------------|
 -|----------------|----------------|----------------|----------------|
 -|----------------|----------------|----------------|----------------|
 -|4-4-4-4-4-4-4-4-|4-4-4-4-4-4-4-4-|4-4-4-4-4-4-4-4-|4-4-4-4-4-4-4-4-|
 -|4-4-4-4-4-4-4-4-|4-4-4-4-4-4-4-4-|4-4-4-4-4-4-4-4-|4-4-4-4-4-4-4-4-|

INTERLUDE
C#5 f#5
 
 -|9-9-9-9-9-9-9-9-|----------------|----------------|----------------|
 -|9-9-9-9-9-9-9-9-|----------------|----------------|----------------|
 -|6-6-6-6-6-6-6-6-|----------------|----------------|----------------|
 -|----------------|----------------|----------------|----------------| 3 TIMES
 -|----------------|----------------|----------------|----------------|
 -|----------------|----------------|----------------|----------------|

[C#5]  
 
 -|9-9-9-9-9-9-9-9-|----------------|----------------|----------------|
 -|9-9-9-9-9-9-9-9-|----------------|----------------|----------------|
 -|6-6-6-6-6-6-6-6-|----------------|----------------|----------------|
 -|----------------|----------------|----------------|----------------|
 -|----------------|----------------|----------------|----------------|
 -|----------------|----------------|----------------|----------------|

CHORUS VARIANT #1
 
 -|--------4-2-1---|----------------|4-4-6-4-6-6-4-6-|9------9------9--|
 -|2---2---------4-|4-4-4---4-4-4-4-|----------------|--11-9---11-9---9|
 -|----------------|----------------|----------------|-----------------|
 -|----------------|----------------|----------------|-----------------|
 -|----------------|----------------|----------------|-----------------|
 -|----------------|----------------|----------------|-----------------|

CHORUS VARIANT #2
 
 -|--------4-2-1---|----------------|----------------|----------------|
 -|2---2---------4-|4-4-4---4-4-4-4-|----------------|----------------|
 -|----------------|----------------|----------------|----------------|
 -|----------------|----------------|----------------|----------------|
 -|----------------|----------------|----------------|----------------|
 -|----------------|----------------|----------------|----------------|

ORDER
INTRO 2 TIMES
VERSE 4 TIMES
CHORUS 2 TIMES
VERSE 2 TIMES
VERSE VARIANT
CHORUS 4 TIMES
BREAK for 4 bars
INTERLUDE
BREAK for 4 bars
CHORUS
CHORUS VARIANT #1
CHORUS
CHORUS VARIANT #2
CHORUS
CHORUS VARIANT #2 and END ON F#5/C#.

Important: The song above is NOT stored on the Chordie server. The original song is hosted at www.xguitar.com. Chordie works as a search engine and provides on-the-fly formatting. Chordie does not index songs against artists'/composers' will. To remove this song please click here.

Text color:
Chord color:
Chord grids: 
Font size:    
Page size: 

A#5 C#5 C5 F#5 F5 G#5
Rate #1 of 2 versions

Jango Player

Login - add to songbook

SHARE PAGE  




You need to log in to post comments