Guitar Tabs, Chords and Lyrics
Major upgrade!! After one year development the new version of Chordie is now online! Please give feedback.


Hearshot Kid Disaster  Coheed and Cambria

As recorded by Coheed and Cambria
(From the 2002 Album SECOND STAGE TURBINE BLADE)
Words by Claudio Sanchez
Music by Coheed and Cambria
x 7 x[E] 9 x x 10 10 [C5]10 x x x 8 8 [Bb5]8 x x x 5 5 [D/G]4 x x x
5 7[Em/G] x x x x 0 9 x[D] x x x x 2 [B5]4 x x x x 0[F#m/A] 4 x x x
5 5[Gsus2] 7 x x x 4 4 [F#5]x x x x x 7 [E5]9 x x x 12 12[D5] x x x x
x x [D/F#]x x 7 10 x x[Esus2] x 9 7 x x x 1[C#m]1 9 x x 4 4 [F#m]7 x x x
5 5 [G5]x x x x 7 7 [A5]x x x x
Gtr I (D A D G B E) - 'clean'
Gtr II (D A D G B E) - 'clean'
Gtr III (D A D G B E) - 'dist.'
Gtr IV (D A D G B E) - 'dist.'
Intro
Moderately Fast Q=108
[E] [C5] [Bb5] [(D)] [E] [C5] [Bb5] [(D)] 
[4/4] Gtr I
E. S S E. E S S S E S S S E S E. E S S S E S
 
 |---------------------------|----------------------------|
 |---------------------------|----------------------------|
 |-9-------------------------|-9-9-9----------------------|
 |-x--x-x-10--8\---x-x--0--x-|-x-x-x-x-10--8\---x-x--0--x-|
 |-7--x-x-10--8\---x-x-(0)-x-|-7-7-7-x-10--8\---x-x-(0)-x-|
 |--------10--8\-------------|---------10--8\-------------|

[E] [C5] [Bb5] [(D)] [E] [C5]Gtr [Bb5]III[(D)]
E E S E. E S S S E S S S E S E. E S S S E S
 
 |--------------------------|----------------------------|
 |--------------------------|----------------------------|
 |-9-9----------------------|-9-9-9----------------------|
 |-x-x-x-10--8\---x-x--0--x-|-x-x-x---10--8\---x-x--0--x-|
 |-7-7-x-10--8\---x-x-(0)-x-|-7-7-7---10--8\---x-x-(0)-x-|
 |-------10--8\-------------|---------10--8\-------------|

[E] E. S S [C5] E. [Bb5] E S S S [(D)] E S [E] S S E S [C5] E. [Bb5] E S S S [(D)] E S
 
 ||--------------------------------|--------------------------------|
 ||o-------------------------------|--------------------------------|
 ||---9----------------------------|--9-9-9-------------------------|
 ||---x--x--x-10---8\---x--x--0--x-|--x-x-x--x-10---8\---x--x--0--x-|
 ||o--7--x--x-10---8\---x--x-(0)-x-|--7-7-7--x-10---8\---x--x-(0)-x-|
 ||-----------10---8\--------------|-----------10---8\--------------|

|
| Gtr IV
| TP TP TP TP TP TP TP TP
| Q Q Q Q Q Q Q Q
 
 ||--15----15-----15------15-------|-15-----15-----15------15-------|
 ||o-15----15-----15------15-------|-15-----15-----15------15-------|
 ||--------------------------------|--------------------------------|
 ||--------------------------------|--------------------------------|
 ||o-------------------------------|--------------------------------|
 ||--------------------------------|--------------------------------|

[E] E E S [C5] E. [Bb5] E S S S [(D)] E S
 
 |------------------------------|
 |------------------------------|
 |--9-9-------------------------|
 |--x-x--x-10---8\---x--x--0--x-|
 |--7-7--x-10---8\---x--x-(0)-x-|
 |---------10---8\--------------|

|
| TP TP TP TP
| Q Q Q Q
 
 |-15---15-----15------15-------|
 |-15---15-----15------15-------|
 |------------------------------|
 |------------------------------|
 |------------------------------|
 |------------------------------|

1. 2.
[E] S S E S [C5] E. [Bb5] E S S S [(D)] E S [E] S S E S [C5] E. [Bb5] E Q.
 
 |---------------------------------||---------------------------||
 |--------------------------------o||---------------------------||
 |--9-9-9--------------------------||--9-9-9--------------------||
 |--x-x-x----10---8\---x--x--0--x--||--x-x-x----10---8----------||
 |--7-7-7----10---8\---x--x-(0)-x-o||--7-7-7----10---8----------||
 |-----------10---8\---------------||-----------10---8----------||

|
| TP TP TP TP TP TP TP
| Q Q Q Q Q Q E. Q S
 
 |-15-----15-----15------15--------||-15-----15-----15----------||
 |-15-----15-----15------15-------o||-15-----15-----15----------||
 |---------------------------------||---------------------------||
 |---------------------------------||---------------------------||
 |--------------------------------o||---------------------------||
 |---------------------------------||---------------------------||

Pre-Verse
Slower Q=82
D/G Em/G D N.C.
S S S S S S S S S S S S S E. S S S S S S S S S S S S S E S
 
 |------------------------------|----------------------------------------|
 |------------------------------|----------------------------------------|
 |------------------------------|----------------------------------------|
 |-4-4-4---x-x-4-4-4---x-x------|----------------------------------------|
 |-5-5-5---x-x-5-5-5---x-x-x-7--|-9-9-9---x-x-9-9-9---14-14----15\-------|
 |-5-5-5---x-x-5-5-5---x-x-x-5--|-4-5-0---x-x-4-5-0----------------------|

|
| PM--|
| S S S S S S S S S S S S S E. S S S S S S S S S S S S S S S S
 
 |------------------------------|----------------------------------------|
 |------------------------------|----------------------------------------|
 |------------------------------|----------------------------------------|
 |-4-4-4---x-x-4-4-4---x-x------|-------------------x-19-----------------|
 |-5-5-5---x-x-5-5-5---x-x-x-7--|-9-9-9---x-x-0-0-0------17-14h15--------|
 |-5-5-5---x-x-5-5-5---x-x-x-5--|-0-0-0---x-x-0-0-0----------------17-17-|

[D/G]S S S S S S S S S S S S S [Em/G]E. [D]S S S S S S S S S Q..
 
 |------------------------------|-------------------------||
 |------------------------------|-------------------------||
 |------------------------------|-------------------------||
 |-4-4-4---x-x-4-4-4---x-x------|-------------------------||
 |-5-5-5---x-x-5-5-5---x-x-x-7--|-9-9-9---x-x-9-9-9-------||
 |-5-5-5---x-x-5-5-5---x-x-x-5--|-4-5-0---x-x-4-5-0-------||

|
| PM--| PM--|
| S S S S S S S S S S S S S E. S S S S S S S S S Q..
 
 |------------------------------|-------------------------||
 |------------------------------|-------------------------||
 |------------------------------|-------------------------||
 |-4-4-4---x-x-4-4-4---x-x---7--|-----------------0-------||
 |-5-5-5---x-x-5-5-5---x-x-x-7--|-0-0-0---x-x-0-0-0-------||
 |-5-5-5---x-x-5-5-5---x-x-x-5--|-0-0-0---x-x-0-0-0-------||

Verse
[D/G]S S S S S S S S S S S S S [Em/G]E.
 
 ||-----------------------------------|
 ||o----------------------------------|
 ||-----------------------------------|
 ||--4-4-4---4---4-4-4-x-x-x-x--------|
 ||o-5-5-5---5---5-5-5-x-x-x-x-7------|
 ||--5-5-5---5---5-5-5-x-x-x-x-5------|

|
| PM| PM| PM| PM| PM| PM
| S S S S S S S S S S S S S S S S
 
 ||-----------------------------------|
 ||o----------------------------------|
 ||------7-----7-----7-----7------7---|
 ||--9-9---9-9---9-9---9-9---9-9----9-|
 ||o----------------------------------|
 ||-----------------------------------|

D N.C.
S S S S S S S S S S S S S E a S 3x
 
 |---------------------------------------------------||
 |--------------------------------------------------o||
 |---------------------------------------------------||
 |---------------------------------------------------||
 |--9--9-9---9----9--9-9---x--x-x-14b14.5r==(14)----o||
 |--4--5-0---0----4--5-0---x--x-x-14b14.5r==(14)-----||

|
| S S S S S S S S S S S S S S E 3x
 
 |---------------------------------------------------||
 |-------------------------8-------8----------------o||
 |---------------------------11-----------9----------||
 |---------------------------------------------------||
 |-10-10-9-x-x-x-10-10-9-x--------------------------o||
 |-12-12-9-0-0-0-12-12-9-0---------------------------||

[D/G]S S S S S S S S S S S S S [Em/G]E.
 
 |----------------------------------|
 |----------------------------------|
 |----------------------------------|
 |-4-4-4---4---4-4-4-x-x-x-x--------|
 |-5-5-5---5---5-5-5-x-x-x-x-7------|
 |-5-5-5---5---5-5-5-x-x-x-x-5------|

|
| PM| PM| PM| PM| PM| PM
| S S S S S S S S S S S S S S S S
 
 |----------------------------------|
 |----------------------------------|
 |-----7-----7-----7-----7------7---|
 |-9-9---9-9---9-9---9-9---9-9----9-|
 |----------------------------------|
 |----------------------------------|

D N.C.
S S S S S S S S S S S S S E a S
 
 |-------------------------------------------------||
 |-------------------------------------------------||
 |-------------------------------------------------||
 |-------------------------------------------------||
 |--9--9-9---9----9--9-9---x-x--x-14b14.5r==(14)---||
 |--4--5-0---0----4--5-0---x-x--x-14b14.5r==(14)---||

|
| S S S S S S S S S S S S S S S S
 
 |-------------------------------------------------||
 |-------------------------8-8---------------------||
 |-----------------------------11-11------9------9-||
 |-------------------------------------------------||
 |-10-10-9---x-x-10-10-9-x-------------------------||
 |-12-12-9---x-x-12-12-9-x-------------------------||

Verse Part 2
[D/G]S S S S S S S S S S S S S [Em/G]E.
 
 |----------------------------------|
 |----------------------------------|
 |----------------------------------|
 |-4-4-4---x-x-4-4-4---x-x----------|
 |-5-5-5---x-x-5-5-5---x-x-x-7------|
 |-5-5-5---x-x-5-5-5---x-x-x-5------|

|
| PM PM PM PM PM
| S S S S S S S S S S S S S S S S
 
 |---------------7------------------|
 |---7-----7-----------7-----7----7-|
 |-----7-----7-----7-----7------7---|
 |-9-----9-----9-----9-----9--------|
 |----------------------------------|
 |----------------------------------|

D N.C.
S S S S S S S S S S S S S E a S
 
 |------------------------------------------------|
 |------------------------------------------------|
 |------------------------------------------------|
 |------------------------------------------------|
 |--9--9-9---x-x--9--9-9---x-x-x-14b14.5r==(14)---|
 |--4--5-0---x-x--4--5-0---x-x-x-14b14.5r==(14)---|

|
| S S S S S S S S S S S S S S E
 
 |------------------------------------------------|
 |--------------------------------8---------------|
 |---------------------------------------9--------|
 |------------------------------------------------|
 |-10-10-9---x-x-10-10-9---x-x-x------------------|
 |-12-12-9---x-x-12-12-9---x-x-x------------------|

[D/G]S S S S S S S S S S S S S [Em/G]E.
 
 |----------------------------------|
 |----------------------------------|
 |----------------------------------|
 |-4-4-4---x-x-4-4-4---x-x----------|
 |-5-5-5---x-x-5-5-5---x-x-x-7------|
 |-5-5-5---x-x-5-5-5---x-x-x-5------|

|
| PM| PM PM PM PM
| S S S S S S S S S S S S S S S S
 
 |-----------7-7---------7-7-7------|
 |-----7-----------7----------------|
 |-------7-----------7--------------|
 |-9-9-----9-----9-----9--------9---|
 |----------------------------------|
 |----------------------------------|

D N.C.
S S S S S S S S S S S S S E a S
 
 |------------------------------------------------|
 |------------------------------------------------|
 |------------------------------------------------|
 |------------------------------------------------|
 |--9--9-9---x-x--9--9-9---x-x-x-14b14.5r==(14)---|
 |--0--0-0---x-x--0--0-0---x-x-x-14b14.5r==(14)---|

|
| S S S S S S S S S S S S S S S S
 
 |------------------------------------------------|
 |-----------------------x-8-8-8------------------|
 |--------------------------------x------9------9-|
 |------------------------------------------------|
 |-10-10-9---x-x-10-10-9--------------------------|
 |-12-12-9---x-x-12-12-9--------------------------|

[D/G]S S S S S S S S S S S S S [Em/G]E.
 
 |----------------------------------|
 |----------------------------------|
 |----------------------------------|
 |-4-4-4---x-x-4-4-4---x-x----------|
 |-5-5-5---x-x-5-5-5---x-x-x-7------|
 |-5-5-5---x-x-5-5-5---x-x-x-5------|

|
| PM| PM| PM| PM| PM| PM
| S S S S S S S S S S S S S S S S
 
 |----------------------------------|
 |----------------------------------|
 |-----7-----7-----7-----7------7---|
 |-9-9---9-9---9-9---9-9---9-9----9-|
 |----------------------------------|
 |----------------------------------|

D N.C.
S S S S S S S S S S S S S E a S
 
 |-------------------------------------------------|
 |-------------------------------------------------|
 |-------------------------------------------------|
 |-------------------------------------------------|
 |--9--9-9---x-x--9--9-9---x-x--x-14b14.5r==(14)---|
 |--4--5-0---x-x--4--5-0---x-x--x-14b14.5r==(14)---|

|
| S S S S S S S S S S S S S S S S
 
 |-------------------------------------------------|
 |-------------------------8-8---------------------|
 |-----------------------------11-11------9------9-|
 |-------------------------------------------------|
 |-10-10-9---x-x-10-10-9-x-------------------------|
 |-12-12-9---x-x-12-12-9-x-------------------------|

[D/G]S S S S S S S S S S S S S [Em/G]E.
 
 |----------------------------------|
 |----------------------------------|
 |----------------------------------|
 |-4-4-4---x-x-4-4-4---x-x----------|
 |-5-5-5---x-x-5-5-5---x-x-x-7------|
 |-5-5-5---x-x-5-5-5---x-x-x-5------|

|
| PM| PM| PM| PM| PM| PM
| S S S S S S S S S S S S S S S S
 
 |----------------------------------|
 |----------------------------------|
 |-----7-----7-----7-----7------7---|
 |-9-9---9-9---9-9---9-9---9-9----9-|
 |----------------------------------|
 |----------------------------------|

D N.C.
S S S S S S S S S S S S S E a S
 
 |--------------------------------------------------||
 |--------------------------------------------------||
 |--------------------------------------------------||
 |--------------------------------------------------||
 |--9--9--9---x-x--9--9--9-----x-x-x-14b14.5r(14)---||
 |--0--0--0---x-x--0--0--0-----x-x-x-14b14.5r(14)---||

|
| S S S S S S S S S Q..
 
 |--------------------------------------------------||
 |--------------------------------------------------||
 |-12-12-12---x-x-12-12-12--------------------------||
 |--x--x--x---x-x--x--x--x--------------------------||
 |-10-10-10---x-x-10-10-10--------------------------||
 |--------------------------------------------------||

Pre-Chorus
[B5] [F#m/A]  
 
 PM--------------------------------------------------------------|

S S S S S S S S S S S S S S S S S S S S S S S S S S S S S S S S
 
 |---------------------------------|---------------------------------|
 |---------------------------------|---------------------------------|
 |---------------------------------|---------------------------------|
 |-4-4-4-4-4-4-4-4-4-4-4-4-4-4-4-4-|-4-4-4-4-4-4-4-4-4-4-4-4-4-4-4---|
 |-2-2-2-2-2-2-2-2-2-2-2-2-2-2-2-2-|-0-0-0-0-0-0-0-0-0-0-0-0-0-0-0-0-|
 |---------------------------------|---------------------------------|

[Gsus2] [F#5] [E5]  
 
 PM--------------------------| PM| PM| PM|

S S S S S S S S S S S S S S S S S S S S S S S S S Q S S S
 
 |---------------------------------|------------------------------------|
 |---------------------------------|------------------------------------|
 |---------------------------------|------------------------------------|
 |-7-7-7-7-7-7-7-7-7-7-7-7-7-7-7---|----------------------------9--9----|
 |-5-5-5-5-5-5-5-5-5-5-5-5-5-5-5---|-4-4-4-4-4-4-4-4-4----------7--7----|
 |-5-5-5-5-5-5-5-5-5-5-5-5-5-5-5-0-|-4-4-4-4-4-4-4-4-4------------------|

|
| Gtr IV
| W H S S S E S S S
 
 |---------------------------------|-------------------12-12---12-12----|
 |---------------------------------|-------------------10-10---10-10----|
 |---------------------------------|-------------------11-11---11-11----|
 |---------------------------------|--------------------9--9----9--9----|
 |---------------------------------|------------------------------------|
 |---------------------------------|------------------------------------|

[B5]S S S S S S S S S S S S S S S S [F#m/A]S S S S S S S S S S S S S S S S
 
 |---------------------------------|-----------------------------------|
 |---------------------------------|-----------------------------------|
 |---------------------------------|-----------------------------------|
 |-4-4-4-4-4-4-4-4-4-4-4-4-4-4-4-4-|-4-4--4-4-4-4-4-4--4-4-4-4-4-4-4---|
 |-2-2-2-2-2-2-2-2-2-2-2-2-2-2-2-2-|-0-0--0-0-0-0-0-0--0-0-0-0-0-0-0-0-|
 |---------------------------------|-----------------------------------|

|
| PM| PM| PM| PM| PM
| S S S S S S S S S S S S S S S S S S S S S S S S S S S S S S S S
 
 |---5-----------5-----------5-----|-----10-----9-----10-----9---------|
 |-----3-0-5-0-----3-0-5-0-----3-0-|-5-7----7-7---7-7----7-7---7-7-7-7-|
 |-------------4-----------4-------|-----------------------------------|
 |---------------------------------|-----------------------------------|
 |---------------------------------|-----------------------------------|
 |---------------------------------|-----------------------------------|

[Gsus2]S S S S S S S S S S S S S S S S
 
 |------------------------------------------------|
 |------------------------------------------------|
 |------------------------------------------------|
 |-7--7--7--7--7--7--7--7--7--7--7--7--7--7--7----|
 |-5--5--5--5--5--5--5--5--5--5--5--5--5--5--5----|
 |-5--5--5--5--5--5--5--5--5--5--5--5--5--5--5--0-|

|
| PM| PM| PM| PM|
| S S S S S S S S S S S S S S S S
 
 |------14-------12-------10-------12-------14----|
 |-7-10----10-10----10-10----10-10----10-10----10-|
 |------------------------------------------------|
 |------------------------------------------------|
 |------------------------------------------------|
 |------------------------------------------------|

[F#5] PM| PM| PM|[E5]
S S S S S S S S S Q S S S
 
 |--------------------------------------------||
 |--------------------------------------------||
 |--------------------------------------------||
 |------------------------------------9--9----||
 |--4--4--4--4--4--4--4--4-4----------7--7-0--||
 |--4--4--4--4--4--4--4--4-4------------------||

|
| S S S S S S S S S S S E S S S
 
 |----12-12-12-12-12-12-12---12-12---12-12----||
 |-10-10-10-10-10-10-10-10---10-10---10-10----||
 |---------------------------11-11---11-11----||
 |----------------------------9--9----9--9----||
 |--------------------------------------------||
 |--------------------------------------------||

Chorus 1
[B5] S S S S S S S S S S S S S S S S
 
 |-------------------------------------------------|
 |-------------------------------------------------|
 |-------------------------------------------------|
 |-------------------------------------------------|
 |--9--9--9--9--9--9--9--9--9--9--9--9--9--9--9--9-|
 |--9--9--9--9--9--9--9--9--9--9--9--9--9--9--9--9-|

|
| S S S S S S S S S S S S S S S S
 
 |-------------------------------------------------|
 |-10-10-10-10-10-10-10-10-10-10-10-10-10-10-10-10-|
 |-11-11-11-11-11-11-11-11-11-11-11-11-11-11-11-11-|
 |--9--9--9--9--9--9--9--9--9--9--9--9--9--9--9--9-|
 |--9--9--9--9--9--9--9--9--9--9--9--9--9--9--9--9-|
 |-------------------------------------------------|

[D5] S S S S S S S S S S S S S S S S
 
 |------------------------------------------------|
 |------------------------------------------------|
 |------------------------------------------------|
 |------------------------------------------------|
 |-12-12-12-12-12-12-12-12-12-12-12-12-12-12-12---|
 |-12-12-12-12-12-12-12-12-12-12-12-12-12-12-12-0-|

|
| S S S S S S S S S S S S S S S S
 
 |------------------------------------------------|
 |------------------------------------------------|
 |--9--9--9--9--9--9--9--9--9--9--9--9--9--9--9-9-|
 |--7--7--7--7--7--7--7--7--7--7--7--7--7--7--7-7-|
 |--7--7--7--7--7--7--7--7--7--7--7--7--7--7--7-7-|
 |------------------------------------------------|

[Gsus2] [F#5] PM| PM| PM PM--|
S S S S S S S S S S S S S S S S S S S S S S S S S S S S S S S S
 
 |---------------------------------|---------------------------------|
 |---------------------------------|---------------------------------|
 |---------------------------------|---------------------------------|
 |-7-7-7-7-7-7-7-7-7-7-7-7-7-7-7---|---------------------------------|
 |-5-5-5-5-5-5-5-5-5-5-5-5-5-5-5---|-4-4-4-4-4-4-4-4-4-4-4-4-4-4-4---|
 |-5-5-5-5-5-5-5-5-5-5-5-5-5-5-5-0-|-4-4-4-4-4-4-4-4-4-4-4-4-4-4-4-0-|

|
| S S S S S S S S S S S S S S S S S S S S S S S S S S S E S S S
 
 |---------------------------------|---------------------------------|
 |---------------------------------|---------------------------------|
 |---------------------------------|---------------------------------|
 |-7-7-7-7-7-7-7-7-7-7-7-7-7-7-7---|---------------------------------|
 |-5-5-5-5-5-5-5-5-5-5-5-5-5-5-5---|-0-x-x-4-x-x-4-4---5-5-----9-9---|
 |-5-5-5-5-5-5-5-5-5-5-5-5-5-5-5-0-|-0-x-x-4-x-x-4-4---5-5-----9-9---|

[B5]S S S S S S S S S S S S S S S S
 
 |---------------------------------|
 |---------------------------------|
 |---------------------------------|
 |---------------------------------|
 |-9-9-9-9-9-9-9-9-9-9-9-9-9-9-9-9-|
 |-9-9-9-9-9-9-9-9-9-9-9-9-9-9-9-9-|

|
| S S S S S S S S S S S S S S S S
 
 |---5-----------5-----------5-----|
 |-----3-0-5-0-----3-0-5-0-----3-0-|
 |-------------4-----------4-------|
 |---------------------------------|
 |---------------------------------|
 |---------------------------------|

[D5] S S S S S S S S S S S S S S S S
 
 |------------------------------------------------|
 |------------------------------------------------|
 |------------------------------------------------|
 |------------------------------------------------|
 |-12-12-12-12-12-12-12-12-12-12-12-12-12-12-12---|
 |-12-12-12-12-12-12-12-12-12-12-12-12-12-12-12-0-|

|
| PM| PM| PM| PM| PM
| S S S S S S S S S S S S S S S S
 
 |-------10--------9-------10--------9------------|
 |--5--7-----7--7-----7--7-----7--7-----7--7--7-7-|
 |------------------------------------------------|
 |------------------------------------------------|
 |------------------------------------------------|
 |------------------------------------------------|

[Gsus2]S S S S S S S S S S S S S S S S
 
 |------------------------------------------------|
 |------------------------------------------------|
 |------------------------------------------------|
 |-7--7--7--7--7--7--7--7--7--7--7--7--7--7--7----|
 |-5--5--5--5--5--5--5--5--5--5--5--5--5--5--5----|
 |-5--5--5--5--5--5--5--5--5--5--5--5--5--5--5--0-|

|
| PM| PM| PM| PM|
| S S S S S S S S S S S S S S S S
 
 |------14-------12-------10-------12-------14----|
 |-7-10----10-10----10-10----10-10----10-10----10-|
 |------------------------------------------------|
 |------------------------------------------------|
 |------------------------------------------------|
 |------------------------------------------------|

[F#5] PM| PM|
S S S S S S S S S Q..
 
 |----------------------------------||
 |----------------------------------||
 |----------------------------------||
 |----------------------------------||
 |--4--4--4--4--4--4--4--4-4--------||
 |--4--4--4--4--4--4--4--4-4--------||

|
| S S S S S S S S H
 
 |----12-------10-------12----------||
 |-10----10-10----10-10-------------||
 |----------------------------------||
 |----------------------------------||
 |----------------------------------||
 |----------------------------------||

Verse 2
[D/G]S S S S S S S S S S S S S [Em/G]E.
 
 ||-----------------------------------|
 ||o----------------------------------|
 ||-----------------------------------|
 ||--4-4-4---4---4-4-4-x-x-x-x--------|
 ||o-5-5-5---5---5-5-5-x-x-x-x-7------|
 ||--5-5-5---5---5-5-5-x-x-x-x-5------|

|
| PM| PM| PM| PM| PM| PM
| S S S S S S S S S S S S S S S S
 
 ||-----------------------------------|
 ||o----------------------------------|
 ||------7-----7-----7-----7------7---|
 ||--9-9---9-9---9-9---9-9---9-9----9-|
 ||o----------------------------------|
 ||-----------------------------------|

D N.C.
S S S S S S S S S S S S S E a S 3x
 
 |----------------------------------------------------||
 |---------------------------------------------------o||
 |----------------------------------------------------||
 |----------------------------------------------------||
 |--9--9-9---9----9--9-9---x--x--x-14b14.5r==(14)----o||
 |--4--5-0---0----4--5-0---x--x--x-14b14.5r==(14)-----||

|
| S S S S S S S S S S S S S S E 3x
 
 |----------------------------------------------------||
 |-------------------------8--------8----------------o||
 |---------------------------11-11---------9----------||
 |----------------------------------------------------||
 |-10-10-9-x-x-x-10-10-9-x---------------------------o||
 |-12-12-9-0-0-0-12-12-9-0----------------------------||

[D/G]S S S S S S S S S S S S S [Em/G]E.
 
 |----------------------------------|
 |----------------------------------|
 |----------------------------------|
 |-4-4-4---4---4-4-4-x-x-x-x--------|
 |-5-5-5---5---5-5-5-x-x-x-x-7------|
 |-5-5-5---5---5-5-5-x-x-x-x-5------|

|
| PM| PM| PM| PM| PM| PM
| S S S S S S S S S S S S S S S S
 
 |----------------------------------|
 |----------------------------------|
 |-----7-----7-----7-----7------7---|
 |-9-9---9-9---9-9---9-9---9-9----9-|
 |----------------------------------|
 |----------------------------------|

D N.C.
S S S S S S S S S S S S S E a S
 
 |---------------------------------------------------||
 |---------------------------------------------------||
 |---------------------------------------------------||
 |---------------------------------------------------||
 |--9--9--9---9----9--9--9---x--x-x-14b14.5r==(14)---||
 |--4--5--0---0----4--5--0---x--x-x-14b14.5r==(14)---||

|
| S S S S S S S S S S S S S S S S
 
 |---------------------------------------------------||
 |---------------------------8----x--8---------------||
 |-12-12-12---x-x-12-12-12-x---11-----------9------x-||
 |--x--x--x---x-x--x--x--x-x-------------------------||
 |-10-10-10---x-x-10-10-10---------------------------||
 |---------------------------------------------------||

Pre-Chorus 2
[B5] [F#m/A]  
 
 PM-----------------------------------------------------------------|

S S S S S S S S S S S S S S S S S S S S S S S S S S S S S S S S
 
 |----------------------------------|------------------------------------|
 |----------------------------------|------------------------------------|
 |----------------------------------|------------------------------------|
 |--4-4-4-4-4-4-4-4-4-4-4-4-4-4-4-4-|---4--4-4-4-4-4-4-4-4-4-4-4-4-4-4---|
 |--2-2-2-2-2-2-2-2-2-2-2-2-2-2-2-2-|---0--0-0-0-0-0-0-0-0-0-0-0-0-0-0-0-|
 |----------------------------------|------------------------------------|

|
| >
| W +W
 
 |----------------------------------|------------------------------------|
 |----------------------------------|------------------------------------|
 |-11-------------------------------|-(11)-------------------------------|
 |----------------------------------|------------------------------------|
 |----------------------------------|------------------------------------|
 |----------------------------------|------------------------------------|

[Gsus2] [F#5] [E5]  
 
 PM--------------------------| PM| PM| PM|

S S S S S S S S S S S S S S S S S S S S S S S S S Q S S S
 
 |---------------------------------|------------------------------------|
 |---------------------------------|------------------------------------|
 |---------------------------------|------------------------------------|
 |-7-7-7-7-7-7-7-7-7-7-7-7-7-7-7---|----------------------------9--9----|
 |-5-5-5-5-5-5-5-5-5-5-5-5-5-5-5---|-4-4-4-4-4-4-4-4-4----------7--7----|
 |-5-5-5-5-5-5-5-5-5-5-5-5-5-5-5-0-|-4-4-4-4-4-4-4-4-4------------------|

|
| W H S S S E S S S
 
 |---------------------------------|-------------------12-12---12-12----|
 |---------------------------------|-------------------10-10---10-10----|
 |---------------------------------|-------------------11-11---11-11----|
 |---------------------------------|--------------------9--9----9--9----|
 |---------------------------------|------------------------------------|
 |---------------------------------|------------------------------------|

[B5]S S S S S S S S S S S S S S S S [F#m/A]S S S S S S S S S S S S S S S S
 
 |---------------------------------|-----------------------------------|
 |---------------------------------|-----------------------------------|
 |---------------------------------|-----------------------------------|
 |-4-4-4-4-4-4-4-4-4-4-4-4-4-4-4-4-|-4-4--4-4-4-4-4-4--4-4-4-4-4-4-4---|
 |-2-2-2-2-2-2-2-2-2-2-2-2-2-2-2-2-|-0-0--0-0-0-0-0-0--0-0-0-0-0-0-0-0-|
 |---------------------------------|-----------------------------------|

|
| PM| PM| PM| PM| PM
| S S S S S S S S S S S S S S S S S S S S S S S S S S S S S S S S
 
 |---5-----------5-----------5-----|-----10-----9-----10-----9---------|
 |-----3-0-5-0-----3-0-5-0-----3-0-|-5-7----7-7---7-7----7-7---7-7-7-7-|
 |-------------4-----------4-------|-----------------------------------|
 |---------------------------------|-----------------------------------|
 |---------------------------------|-----------------------------------|
 |---------------------------------|-----------------------------------|

[Gsus2]S S S S S S S S S S S S S S S S
 
 |------------------------------------------------|
 |------------------------------------------------|
 |------------------------------------------------|
 |-7--7--7--7--7--7--7--7--7--7--7--7--7--7--7----|
 |-5--5--5--5--5--5--5--5--5--5--5--5--5--5--5----|
 |-5--5--5--5--5--5--5--5--5--5--5--5--5--5--5--0-|

|
| PM| PM| PM| PM|
| S S S S S S S S S S S S S S S S
 
 |------14-------12-------10-------12-------14----|
 |-7-10----10-10----10-10----10-10----10-10----10-|
 |------------------------------------------------|
 |------------------------------------------------|
 |------------------------------------------------|
 |------------------------------------------------|

[F#5] PM| PM| PM|[E5]
S S S S S S S S S Q S S S
 
 |--------------------------------------------||
 |--------------------------------------------||
 |--------------------------------------------||
 |------------------------------------9--9----||
 |--4--4--4--4--4--4--4--4-4----------7--7-0--||
 |--4--4--4--4--4--4--4--4-4------------------||

|
| S S S S S S S S S S S E S S S
 
 |----12-12-12-12-12-12-12---12-12---12-12----||
 |-10-10-10-10-10-10-10-10---10-10---10-10----||
 |---------------------------11-11---11-11----||
 |----------------------------9--9----9--9----||
 |--------------------------------------------||
 |--------------------------------------------||

Chorus 2
[B5] S S S S S S S S S S S S S S S S
 
 |-------------------------------------------------|
 |-------------------------------------------------|
 |-------------------------------------------------|
 |-------------------------------------------------|
 |--9--9--9--9--9--9--9--9--9--9--9--9--9--9--9--9-|
 |--9--9--9--9--9--9--9--9--9--9--9--9--9--9--9--9-|

|
| S S S S S S S S S S S S S S S S
 
 |-------------------------------------------------|
 |-10-10-10-10-10-10-10-10-10-10-10-10-10-10-10-10-|
 |-11-11-11-11-11-11-11-11-11-11-11-11-11-11-11-11-|
 |--9--9--9--9--9--9--9--9--9--9--9--9--9--9--9--9-|
 |--9--9--9--9--9--9--9--9--9--9--9--9--9--9--9--9-|
 |-------------------------------------------------|

[D5] S S S S S S S S S S S S S S S S
 
 |------------------------------------------------|
 |------------------------------------------------|
 |------------------------------------------------|
 |------------------------------------------------|
 |-12-12-12-12-12-12-12-12-12-12-12-12-12-12-12---|
 |-12-12-12-12-12-12-12-12-12-12-12-12-12-12-12-0-|

|
| S S S S S S S S S S S S S S S S
 
 |------------------------------------------------|
 |------------------------------------------------|
 |--9--9--9--9--9--9--9--9--9--9--9--9--9--9--9-9-|
 |--7--7--7--7--7--7--7--7--7--7--7--7--7--7--7-7-|
 |--7--7--7--7--7--7--7--7--7--7--7--7--7--7--7-7-|
 |------------------------------------------------|

[Gsus2] [F#5] PM| PM| PM PM--|
S S S S S S S S S S S S S S S S S S S S S S S S S S S S S S S S
 
 |---------------------------------|---------------------------------|
 |---------------------------------|---------------------------------|
 |---------------------------------|---------------------------------|
 |-7-7-7-7-7-7-7-7-7-7-7-7-7-7-7---|---------------------------------|
 |-5-5-5-5-5-5-5-5-5-5-5-5-5-5-5---|-4-4-4-4-4-4-4-4-4-4-4-4-4-4-4---|
 |-5-5-5-5-5-5-5-5-5-5-5-5-5-5-5-0-|-4-4-4-4-4-4-4-4-4-4-4-4-4-4-4-0-|

|
| S S S S S S S S S S S S S S S S S S S S S S S S S S S E S S S
 
 |---------------------------------|---------------------------------|
 |---------------------------------|---------------------------------|
 |---------------------------------|---------------------------------|
 |-7-7-7-7-7-7-7-7-7-7-7-7-7-7-7---|---------------------------------|
 |-5-5-5-5-5-5-5-5-5-5-5-5-5-5-5---|-0-x-x-4-x-x-4-4---5-5-----9-9---|
 |-5-5-5-5-5-5-5-5-5-5-5-5-5-5-5-0-|-0-x-x-4-x-x-4-4---5-5-----9-9---|

[B5]S S S S S S S S S S S S S S S S
 
 |---------------------------------|
 |---------------------------------|
 |---------------------------------|
 |---------------------------------|
 |-9-9-9-9-9-9-9-9-9-9-9-9-9-9-9-9-|
 |-9-9-9-9-9-9-9-9-9-9-9-9-9-9-9-9-|

|
| S S S S S S S S S S S S S S S S
 
 |---5-----------5-----------5-----|
 |-----3-0-5-0-----3-0-5-0-----3-0-|
 |-------------4-----------4-------|
 |---------------------------------|
 |---------------------------------|
 |---------------------------------|

[D5] S S S S S S S S S S S S S S S S
 
 |------------------------------------------------|
 |------------------------------------------------|
 |------------------------------------------------|
 |------------------------------------------------|
 |-12-12-12-12-12-12-12-12-12-12-12-12-12-12-12---|
 |-12-12-12-12-12-12-12-12-12-12-12-12-12-12-12-0-|

|
| PM| PM| PM| PM| PM
| S S S S S S S S S S S S S S S S
 
 |-------10--------9-------10--------9------------|
 |--5--7-----7--7-----7--7-----7--7-----7--7--7-7-|
 |------------------------------------------------|
 |------------------------------------------------|
 |------------------------------------------------|
 |------------------------------------------------|

[Gsus2]S S S S S S S S S S S S S S S S
 
 |------------------------------------------------|
 |------------------------------------------------|
 |------------------------------------------------|
 |-7--7--7--7--7--7--7--7--7--7--7--7--7--7--7----|
 |-5--5--5--5--5--5--5--5--5--5--5--5--5--5--5----|
 |-5--5--5--5--5--5--5--5--5--5--5--5--5--5--5--0-|

|
| PM| PM| PM| PM|
| S S S S S S S S S S S S S S S S
 
 |------14-------12-------10-------12-------14----|
 |-7-10----10-10----10-10----10-10----10-10----10-|
 |------------------------------------------------|
 |------------------------------------------------|
 |------------------------------------------------|
 |------------------------------------------------|

[F#5] PM| PM| PM PM---|
S S S S S S S S S S S S S S S S
 
 |-------------------------------------------------||
 |-------------------------------------------------||
 |-------------------------------------------------||
 |-------------------------------------------------||
 |--4--4--4--4--4--4--4--4--4--4--4--4--4--4--4----||
 |--4--4--4--4--4--4--4--4--4--4--4--4--4--4--4--0-||

|
| S S S S S S S S S S S S S S S S
 
 |----12-------10-------12-------14-------12-------||
 |-10----10-10----10-10----10-10----10-10----10-10-||
 |-------------------------------------------------||
 |-------------------------------------------------||
 |-------------------------------------------------||
 |-------------------------------------------------||

Breakdown
[D/F#]Gtr I[F#5]
S S S S E S S S S E S S S S S S S S E S S S S E S S S S
 
 |-10-10-10-10---10-10-10-10---10-10-10-10-|--9--9-9-9---9-9-9-9---9-9-9-x--|
 |--7--7--7--7----7--7--7--7----7--7--7--7-|--7--7-7-7---7-7-7-7---7-7-7-x--|
 |-----------------------------------------|--------------------------------|
 |-----------------------------------------|--------------------------------|
 |-----------------------------------------|--------------------------------|
 |-----------------------------------------|--------------------------------|

|
| >
| W +W
 
 |-----------------------------------------|--------------------------------|
 |-----------------------------------------|--------------------------------|
 |-----------------------------------------|--------------------------------|
 |--0--------------------------------------|-(0)----------------------------|
 |--0--------------------------------------|-(0)----------------------------|
 |--0--------------------------------------|-(0)----------------------------|

[Esus2] S S S S S S S S S S S S S S E [C#m] S S S S S S S S S S S S S S E
 
 |---------------------------------|---------------------------------|
 |-------7---7-------7---7---------|---------------------------------|
 |--7h=9---9---9-7h9---9---9-7h9---|-------7---7-------7---7---------|
 |-------------------------------9-|--7h=9---9---9-7h9---9---9-7h9---|
 |---------------------------------|-------------------------------9-|
 |---------------------------------|---------------------------------|

|
| +W +W
 
 |---------------------------------|---------------------------------|
 |---------------------------------|---------------------------------|
 |---------------------------------|---------------------------------|
 |-(0)-----------------------------|-(0)-----------------------------|
 |-(0)-----------------------------|-(0)-----------------------------|
 |-(0)-----------------------------|-(0)-----------------------------|

[D/F#]Gtr III
S S S S E S S S S E S S S S
 
 ||--10-10-10-10---10-10-10-10---10-10-10-10-|
 ||o--7--7--7--7----7--7--7--7----7--7--7--7-|
 ||------------------------------------------|
 ||------------------------------------------|
 ||o-----------------------------------------|
 ||------------------------------------------|

|
| Gtr IV
 
 | PM----------

| S S S S E S S S S E S S S S
 
 ||------------------------------------------|
 ||o-----------------------------------------|
 ||------------------------------------------|
 ||------------------------------------------|
 ||o--9--9--9--9----9--9--9--9----9--9--9--9-|
 ||---9--9--9--9----9--9--9--9----9--9--9--9-|

[F#5] S S S S E S S S S E S S S S
 
 |--9--9--9--9----9--9--9--9----9--9--9--x-|
 |--7--7--7--7----7--7--7--7----7--7--7--x-|
 |-----------------------------------------|
 |-----------------------------------------|
 |-----------------------------------------|
 |-----------------------------------------|

|
 
 |----------| PM------| PM------|

| S S S S E S S S S E S S S S
 
 |-----------------------------------------|
 |-----------------------------------------|
 |-----------------------------------------|
 |-----------------------------------------|
 |-12-12-12-12---12-12-12-12---12-12-12-12-|
 |-12-12-12-12---12-12-12-12---12-12-12-12-|

[Esus2]Gtr I[C#m]
S S S S S S S S S S S S S S E S S S S S S S S S S S S S S E 3x
 
 |-------------------------------|--------------------------------||
 |-----7---7-------7---7---------|-------------------------------o||
 |-7h9---9---9-7h9---9---9-7h9---|-----7---7-------7---7----------||
 |-----------------------------9-|-7h9---9---9-7h9---9---9-7h9----||
 |-------------------------------|-----------------------------9-o||
 |-------------------------------|--------------------------------||

Outro
6[D/G]/8
Gtrs III, IV
S S S S E S S S S E S S S S E S S S S S S
 
 ||----------------------|-----------------------|
 ||o---------------------|-----------------------|
 ||----------------------|-----------------------|
 ||--4-4-4-4---4-4-4-4---|-4-4-4-4---4-4-4-4-4---|
 ||o-5-5-5-5---5-5-5-5---|-5-5-5-5---5-5-5-5-5---|
 ||--5-5-5-5---5-5-5-5---|-5-5-5-5---5-5-5-5-5-0-|

[B5]S S S S S S S S S S S S [F#m/A] S S S S S S S S S S S S 4x
 
 |---------------------------|------------------------------------||
 |---------------------------|-----------------------------------o||
 |---------------------------|------------------------------------||
 |-4--4-4-4-4-4-4-4-4-4--4-4-|---4-4--4--4--4-4--4-4--4---4--4----||
 |-2--2-2-2-2-2-2-2-2-2--2-2-|---0-0--0--0--0-0--0-0--0---0--0-0-o||
 |---------------------------|------------------------------------||

|
| Gtr IV
| Q. E S E. E S E. E S E. 4x
 
 |---------------------------|------------------------------------||
 |---------------------------|-----------------------------------o||
 |------------------0--------|------------------------------------||
 |-4------------4-----4------|-------16-----------------/19-------||
 |-2-------------------------|-/17------17------14---17----------o||
 |---------------------------|------------------------------------||

[Gsus2]S S S S S S S S S S S S [F#m]S S S S S S S S S S S S
 
 ||--------------------------|-------------------------|
 ||o-------------------------|-------------------------|
 ||--------------------------|-------------------------|
 ||--7-7-7-7-7-7-7-7-7-7-7-7-|-7-7-7-7-7-7-7-7-7-7-7---|
 ||o-5-5-5-5-5-5-5-5-5-5-5-5-|-4-4-4-4-4-4-4-4-4-4-4---|
 ||--5-5-5-5-5-5-5-5-5-5-5-5-|-4-4-4-4-4-4-4-4-4-4-4-0-|

[G5F#D5G5F#D5G5F#D5G5F#D5]S S S S S S S S S S S S [G5F#D5G5F#D5F#A5G5A5G5A5]S S S S S S S S S S S S
 
 |-------------------------|--------------------------||
 |-------------------------|-------------------------o||
 |-------------------------|--------------------------||
 |-------------------------|--------------------------||
 |-5p4-0-5p4-0-5p4-0-5p4-0-|-5p4-0-5p4-0-4h7-5h7-5h7-o||
 |-5p4-0-5p4-0-5p4-0-5p4-0-|-5p4-0-5p4-0-4h7-5h7-5h7--||

|
| Gtr IV
| S S S S S S S S S S S S S S S S S S S S S S S S
 
 |-------------------------|--------------------------||
 |-------------------------|-------------------------o||
 |-------------------------|--------------------------||
 |-------------------------|--------------------------||
 |-5p4-0-0---0-5p4-0-0---0-|-5p4-0-0---0-4h7-5h7-5h7-o||
 |-5p4-0-0---0-5p4-0-0---0-|-5p4-0-0---0-4h7-5h7-5h7--||

[Gsus2]Gtrs III, IV[F#m]
S S S S S S S S S S S S S S S S S S S S S S S S 3x
 
 ||--------------------------|--------------------------||
 ||o-------------------------|-------------------------o||
 ||--------------------------|--------------------------||
 ||--7-7-7-7-7-7-7-7-7-7-7-7-|-7-7-7-7-7-7-7-7-7-7-7-7--||
 ||o-5-5-5-5-5-5-5-5-5-5-5-5-|-4-4-4-4-4-4-4-4-4-4-4-4-o||
 ||--5-5-5-5-5-5-5-5-5-5-5-5-|-4-4-4-4-4-4-4-4-4-4-4-4--||

[G5F#D5G5F#D5G5F#D5G5F#D5]S S S S S S S S S S S S [G5F#D5G5F#D5F#A5G5A5G5A5]S S S S S S S S S S S S 4x [G5F#D5]S S S S H
 
 ||--------------------------|--------------------------||--------------*|
 ||o-------------------------|-------------------------o||--------------*|
 ||--------------------------|--------------------------||--------------*|
 ||--------------------------|--------------------------||--------------*|
 ||o-5p4-0-5p4-0-5p4-0-5p4-0-|-5p4-0-5p4-0-4h7-5h7-5h7-o||-5p4-0-0------*|
 ||--5p4-0-5p4-0-5p4-0-5p4-0-|-5p4-0-5p4-0-4h7-5h7-5h7--||-5p4-0-0------*|

|
| Gtr IV
| S S S S S S S S S S S S S S S S S S S S S S S S 4x S S S S H
 
 ||--------------------------|--------------------------||--------------*|
 ||o-------------------------|-------------------------o||--------------*|
 ||--------------------------|--------------------------||--------------*|
 ||--------------------------|--------------------------||--------------*|
 ||o-5p4-0-0---0-5p4-0-0---0-|-5p4-0-0---0-4h7-5h7-5h7-o||-5p4-0-0------*|
 ||--5p4-0-0---0-5p4-0-0---0-|-5p4-0-0---0-4h7-5h7-5h7--||-5p4-0-0------*|

Duration Legend
 
 ---------------
 W - whole; H - half; Q - quarter; E - 8th; S - 16th; T - 32nd; X - 64th; a - acciaccatura

+ - note tied to previous; . - note dotted; .. - note double dotted
Uncapitalized letters represent notes that are staccato (1/2 duration)
Irregular groupings are notated above the duration line
Duration letters will always appear directly above the note/fret number it represents the
duration for. Duration letters with no fret number below them represent rests. Multi-
bar rests are notated in the form Wxn, where n is the number of bars to rest for. Low
melody durations appear below the staff
Tablature Legend
 
 ----------------

h - hammer-on
p - pull-off
b - bend
pb - pre-bend
r - bend release (if no number after the r, then release immediately)
/\ - slide into or out of (from/to "nowhere")
s - legato slide
S - shift slide
<n> - natural harmonic
(n) - artificial harmonic
n(n) - tapped harmonic
~ - vibrato
tr - trill
T - tap
TP - trem. picking
PM - palm muting
\n/ - tremolo bar dip; n = amount to dip
\n - tremolo bar down
n/ - tremolo bar up
/n\ - tremolo bar inverted dip
= - hold bend; also acts as connecting device for hammers/pulls
<> - volume swell (louder/softer)
x - on rhythm slash represents muted slash
o - on rhythm slash represents single note slash
Misc Legend
 <br /

Important: The song above is NOT stored on the Chordie server. The original song is hosted at www.xguitar.com. Chordie works as a search engine and provides on-the-fly formatting. Chordie does not index songs against artists'/composers' will. To remove this song please click here.

Text color:
Chord color:
Chord grids: 
Font size:    
Page size: 

A5 B5 Bb5 C#m C5 D D/F# D/G D5 E E5 Esus2 F#5 F#m F#m/A G5 Gsus2
Rate #2 of 3 versions

Login - add to songbook

SHARE PAGE  




You need to log in to post comments