Guitar Tabs, Chords and Lyrics
Major upgrade!! After one year development the new version of Chordie is now online! Please give feedback.


Neverender  Coheed and Cambria

Coheed and Cambria
intro a intro b
 
 |-------44-77--4540---|-----------------------------4540--|
 |--4545---------------|-----------------------------------|
 |---------------------|-----------------------------------|
 |-66-66-99------------|-66-66-99--------------------------|
 |-44-44-77-77-4h6-66--|-44-44-77-77-77--44-44-46-66-------|
 |----------77-4h6-66--|----------77-77--44-44-46-66-------|
 pm PM----------

verse
 
 |-----------------------------------------------|
 |------------------------------------------4/5--|
 |-----------------------------------------------|
 |-6-----------2----------------99-6-4-66-4------|
 |-4-----------0--------4-------77-4-2-44-2------|
 |----------------------4------------------------|
 pm----------------------

"I'll miss you when..."
 
 |---------------0---------0---0-----------------|
 |--4-----4--------0-----2----2-55-2-0-22-0-4/5--|
 |----4-----4-----------4----4-------------------|
 |-6-----------2----------------99-6-4-66-4------|
 |-4-----------0--------4-------77-4-2-44-2------|
 |----------------------4------------------------|
 pm----------------------

"Graver mistakes"
 
 |-7-5-4--4540--------ad lib this -----|
 |--------------2/4-2------------------|
 |-------------------------------------|
 |-9----------2------------6--------2--|
 |-7----------0------------4--------0--|
 |-------------------------------------|
 pm---------------------------------

[C#5] [E5] [AMaj]  
 
 |---------11-12---------12-11--9999-------------------|
 |--9h10p9--------9h10p9--------2---121212129999-------|
 |--6-------------4-------------2---------------9999---|
 |--6-------------2-------------2----------------------|
 |--4-------------2-------------0----------------------|
 |----------------2------------------------------------|

im pretty sure all the parts are here.
=================ANOTHER VERSION==================================
Part 1
0:00-0:16
six times
 
 e|--------------------------------------------------------------------------|
 B|--------------------------------------------------------------------------|
 G|--------------------------------------------------------------------------|
 D|-6-6----------------------------------------------------------------------|
 A|-4-4-9-9-1111-7-7-4h6-6-6-6-----------------------------------------------|
 E|-----7-7-7-7--7-7-4h6-6-6-6-----------------------------------------------|

Part 2
0:17-0:34
three times
 
 e|-----------------------------------------4-5-4-0--------------------------|
 B|--------------------------------------------------------------------------|
 G|--------------------------------------------------------------------------|
 D|-6-6-6-6-9-9-9-9----------------------------------------------------------|
 A|-4-4-4-4-7-7-7-7-7-7-7-7-4-4-4-4-6-6-6-6----------------------------------|
 E|-----------------7-7-7-7-4-4-4-4-6-6-6-6----------------------------------|
 P.M.----------|

Part 3
0:35-1:21
four times
 
 e|--------------------------------------------------------------------------|
 B|-(16-times-each)-----------------------4/5--------------------------------|
 G|-(palm-mute)--------------------------------------------------------------|
 D|-(6)----------------------------------------------------------------------|
 A|-(4)-(7)-(4)--1111-9-9-7-9-4-4-4-4----------------------------------------|
 E|-----(7)-(4)--7-7--7-7-7-7-4-4-6-6----------------------------------------|

Part 4 - "In graver mistakes..."
1:22-1:43
two times
 
 e|--------------------------------------------------------------------------|
 B|-(16-times-each)----------------------------------------------------------|
 G|--------------------------------------------------------------------------|
 D|-(9)-----(6)--------------------------------------------------------------|
 A|-(7)-(7)-(4)-(7)----------------------------------------------------------|
 E|-----(7)-----(7)----------------------------------------------------------|

1:45-1:50 - Part 2, one time
1:51-2:13 - Part 3, two times
2:14-2:37 - Part 3, two times without palm mute
2:38-3:01 - Part 4
Part 5 - "Point your gun in another direction..."
3:02-3:24
 
 e|--------------------------------------------------------------------------|
 B|--------------------------------------------------------------------------|
 G|--------------------------------------------------------------------------|
 D|-6-6-6-6-6-6-6-6----------------------------------------------------------|
 A|-4-4-4-4-4-4-4-4-2-2-2-2-2-2-2-2-7-7-7-7-7-7-7-7-7-7-7-7-7-7-7-7----------|
 E|-----------------2-2-2-2-2-2-2-2-7-7-7-7-7-7-7-7-7-7-7-7-7-7-7-7----------|

3:25-4:04 - Parts 1 & 2
4:05-4:27 - Part 4
4:28-End - Part 5

Important: The song above is NOT stored on the Chordie server. The original song is hosted at www.xguitar.com. Chordie works as a search engine and provides on-the-fly formatting. Chordie does not index songs against artists'/composers' will. To remove this song please click here.

Text color:
Chord color:
Chord grids: 
Font size:    
Page size: 

Amaj C#5 E5
Rate #6 of 6 versions

Jango Player

Login - add to songbook

SHARE PAGE  




You need to log in to post comments