Guitar Tabs, Chords and Lyrics
Major upgrade!! After one year development the new version of Chordie is now online! Please give feedback.


Suffocate  Cold

[C]In[F]tr[Bb]o/ [Eb]Ver[G]se[C] (clean)
 
 -----------------------------------------------------------------------------------
 -----------------------------------------------------------------------------------
 ----------2-2-----2-----------0-0-----0-----------0-0-----0----------2-2-2-2-2/4-4-
 ------2-2-----2-2---2-----2-2-----2-2---2-----0-0-----0-0---0----2-2---------------
 --0-0-----------------3-3-----------------3-3-----------------0-0------------------
 -----------------------------------------------------------------------------------

Chorus no strumming pattern (distorted)
 
 ---------------|------------------
 ---------------|------------------
 ---------------|------------------
 --5------------|---7---5-7---2----
 --3---5---7----|--/5---3/5---0----
 ------3---5----|------------------


Important: The song above is NOT stored on the Chordie server. The original song is hosted at www.xguitar.com. Chordie works as a search engine and provides on-the-fly formatting. Chordie does not index songs against artists'/composers' will. To remove this song please click here.

Text color:
Chord color:
Chord grids: 
Font size:    
Page size: 

Bb C Eb F G
Rate #2 of 3 versions

Jango Player

Login - add to songbook

SHARE PAGE  




You need to log in to post comments