Guitar Tabs, Chords and Lyrics
Server problems seems to be fixed. Chordie has been experiencing problems with songs disappearing. These issues now seems to be fixed, but still verifying the fix. If you find anything strange, please email admin@chordie.com.


Go to Hell  Alice Cooper

"Go to Hell" by Alice Cooper
Words and music by Cooper, Wagner and Ezrin
From the album Alice Cooper Goes To Hell (1976)
Transcription by Brian Gaddis
~~= vibrato h= hammer-on p= pull-off x= mute \= slide down
/= slide up
Note: Some parts of this song are not transcribed due to the difficulty
in hearing them.
Intro
 
 E-|------------------|------------------------|-------------------------------|
 B-|------------------|------------------------|-------------------------------|
 G-|------------------|------------------------|-------------------------------|
 D-|-----4--4---(4)---|---------4--4~~---(4)---|-------4--4~~---(4)------------|
 A-|------------------|------------------------|-------------------------------|
 E-|--2---------------|---0--2-----------------|--0h2--------------------------|
 E-|---------------------------|-----------------------|-----------------------|
 B-|---------------------------|-----------------------|-----------------------|
 G-|---------------------------|-----------------------|-----------------------|
 D-|-------------4--4~~---(4)--|---------4--4~~---(4)--|------------4--4---(4)-|
 A-|-0h2h4---------------------|-2h4-------------------|-2--4------------------|
 E-|--------0h2----------------|------2----------------|-------0h2-------------|

(Rhythm guitar chords on top of staff)
[A5] [Ab5] [G5]  
 
 E-|--------------------|--------------------------|---------------------------|
 B-|--------------------|--------------------------|---------------------------|
 G-|--------------------|--------------------------|---------------------------|
 D-|-------4--4~~--(4)--|------------4--4~~---(4)--|-------------4--4~~---(4)--|
 A-|--------------------|--2--4--------------------|--2--4---------------------|
 E-|--0h2---------------|--------0h2---------------|--------0h2----------------|

| |
| |
 
 E-|---17-----------------------16--------------------------15-----------------|
 B-|---20b----------------------19b-------------------------18b----------------|
 G-|---------------------------------------------------------------------------|
 D-|---------------------------------------------------------------------------|
 A-|---------------------------------------------------------------------------|
 E-|---------------------------------------------------------------------------|

[Gbm] [A5] [Ab5]  
 
 E-|--------------------------|------------------------|-----------------------|
 B-|--------------------------|------------------------|-----------------------|
 G-|--------------------------|------------------------|-----------------------|
 D-|-------4--4~~---(4)-------|-----------4--4~~---(4)-|-------4--4~~---(4)----|
 A-|--------------------------|-2--4-------------------|-----------------------|
 E-|--0h2---------------------|-------0h2--------------|--0h2------------------|

| |
| |
 
 E-|--14-------------------------17------------------------16------------------|
 B-|--17b------------------------20b-----------------------19b-----------------|
 G-|---------------------------------------------------------------------------|
 D-|---------------------------------------------------------------------------|
 A-|---------------------------------------------------------------------------|
 E-|---------------------------------------------------------------------------|

[G5]  
 
 E-|---------------------------|-----------------------------------------------|
 B-|---------------------------|-----------------------------------------------|
 G-|---------------------------|-----------------------------------------------|
 D-|-------------4--4~~---(4)--|-----------------------------------------------|
 A-|--2--4---------------------|-----------------------------------------------|
 E-|--------0h2----------------|-----2---0--2--5--2--2~------------------------|

| |
| |
 
 E-|--15-----------------------------------------------------------------------|
 B-|--18b----------------------------------------------------------------------|
 G-|---------------------------------------------------------------------------|
 D-|---------------------------------------------------------------------------|
 A-|---------------------------------------------------------------------------|
 E-|---------------------------------------------------------------------------|

Verse
1. "For criminal acts and violence on the stage."
2. "For gambling and drinking alcohol constantly."
3. "You'd poison a blind man's dog and steal his cane."
 
 E-|---------------------------------------------------------------------------|
 B-|---------------------------------------------------------------------------|
 G-|-------------------------------------------------x--x----------------------|
 D-|----4---4p2------2----4--------------------------x--x----2--4--------------|
 A-|--------------4-----------4p2------2--4----------x--x----2--4--------------|
 E-|-------------------------------5----------2--------------0--2--------------|

"For being a brat re-fusing to act your age."
"For making us doubt our parents' authority."
"You'd gift wrap a leper and mail him to your Aunt Jane."
 
 E-|---------------------------------------------------------------------------|
 B-|---------------------------------------------------------------------------|
 G-|---------------------------------------------------------------------------|
 D-|--4---4p2------2----4------------------------------------------------------|
 A-|------------4----------4p2-------2--4--------------------------------------|
 E-|------------------------------5-----------2---------------0--2--5--2-------|

"For all of the decent citizens you've enraged. You can go to Hell."
"For choosing to be a living obscenity. You can go to Hell."
"You'd even force-feed a diabetic a candy cane. You can go to Hell."
 
 E-|---------------------------------------------------------------------------|
 B-|---------------------------------------------------------------------------|
 G-|---------------------------------------------------------------------------|
 D-|--4---4p2--------2--4----------------------------6--7-------6--5--4--------|
 A-|-------------4----------4p2------2------4--------6--7-------6--5--4--------|
 E-|-----------------------------5-------------2-----4--5-------4--3--2--------|

(After first time go to verse two. Second time - go to End)
(After second verse go to Bridge)
(After third verse go to Rhythm fig. two)
 
 E-|---------------------------------------------------------------------------|
 B-|---------------------------------------------------------------------------|
 G-|---------------------------------------------------------------------------|
 D-|---------------------------------------------------------------------------|
 A-|---------------------------------------------------------------------------|
 E-|--2---0--2--5--2--2~-------------------------------------------------------|

Bridge
"You're something that never should have happened. You
 
 E-|---------------------------------------------------------------------------|
 B-|---------------------------------------------------------------------------|
 G-|---------------------------------------------------------------------------|
 D-|--9---------------------9---------------------------(9)--(11)--(12)--------|
 A-|--9---------------------9---------------------------(9)--(11)--(12)--------|
 E-|--7---------------------7---------------------------(7)--(-9)--(10)--------|

"even make your Grand-ma sick." (After first time go to Verse three)
(After second time go to Verse one)
 
 E-|---------------------------------------------------------------------------|
 B-|---------------------------------------------------------------------------|
 G-|---------------------------------------------------------------------------|
 D-|--(12)-----------(11)--(11)--(11)---------------------7--------------------|
 A-|--(12)-----------(11)--(11)--(11)---------7--9--7--9-----------------------|
 E-|--(10)-----------(-9)--(-9)--(-9)------9------------------2----------------|

Rhythm fig. two (After first time go back to Bridge)
 
 E-|---------------------------------------------------------------------------|
 B-|---------------------------------------------------------------------------|
 G-|--------2------------------------------------------------------------------|
 D-|--------2-------------2--4--2--2-----------------------4--4--4-------------|
 A-|-(12\)--0--0--0--2/4--------2--2--------------2--4-----4--4--4-------------|
 E-|----------------------------0--0---0--0--2/4--------2--2--2--2--0--2--5--2-|

(Repeat as necessary)
 
 E-|---------------------------------------------------------------------------|
 B-|---------------------------------------------------------------------------|
 G-|---------------------------------------------------------------------------|
 D-|--4--4--4------------------------------------------------------------------|
 A-|--4--4--4------------------------------------------------------------------|
 E-|--2--2--2---2--4-----------------------------------------------------------|

End (song ends with a simile of Intro followed by Rhythm fig. two till fade)

Important: The song above is NOT stored on the Chordie server. The original song is hosted at www.xguitar.com. Chordie works as a search engine and provides on-the-fly formatting. Chordie does not index songs against artists'/composers' will. To remove this song please click here.

Text color:
Chord color:
Chord grids: 
Font size:    
Page size: 

A5 Ab5 G5 Gbm
Rate #2 of 2 versions

Jango Player

Login - add to songbook

SHARE PAGE  



You need to log in to post comments