Guitar Tabs, Chords and Lyrics
Major upgrade!! After one year development the new version of Chordie is now online! Please give feedback.


Her Ghost in the Fog  Cradle of Filth

As recorded by Cradle Of Filth
(From the 2000 Album MIDIAN)
Words and Music by Cradle Of Filth
Transcribed by Marcus Päiviö
0 2 [E5]2 x x x 2 4 [F#5]4 x x x 5 5[D5/A] 7 x x x 7 7[E5/B] 9 x x x
3 3[C5/G] 5 x x x 4 6 [G#5]x x x x 3 5 [G5]x x x x x 6 [Eb5]8 x x x
Gtr I (D G C F A D) - 'Guitar 1'
Gtr II (D G C F A D) - 'Guitar 2'
Intro
Q=128
[E5]  
[2/4] Gtr I[4/4]
 
 PM-----------------------
 |-3-| |-3-| |-3-| |-3-|

[B] [E] [E] [E] [E] [E] [E] [E] [E] [E] [E] [E] [E]  
 
 |-------|-------------------------|
 |-------|-------------------------|
 |-------|-------------------------|
 |-x\----|-------------------------|
 |-x\----|-2-2-2-2-2-2-2-2-2-2-2-2-|
 |-------|-0-0-0-0-0-0-0-0-0-0-0-0-|

|
| Gtr II
 
 | PM-----------------------
 | |-3-| |-3-| |-3-| |-3-|

| H E E E E E E E E E E E E
 
 |-------|-------------------------|
 |-------|-------------------------|
 |-------|-------------------------|
 |-x\----|-------------------------|
 |-x\----|-2-2-2-2-2-2-2-2-2-2-2-2-|
 |-------|-0-0-0-0-0-0-0-0-0-0-0-0-|

[G#5]  
 
 -----------------------| TP TP
 |-3-| |-3-| |-3-| |-3-|

E E E E E E E E E E E E W +W
 
 |-------------------------|----------|--------|
 |-------------------------|----------|--------|
 |-------------------------|----------|--------|
 |-------------------------|----------|--------|
 |-2-2-2-2-2-2-2-2-2-2-2-2-|-6--------|-(6)----|
 |-0-0-0-0-0-0-0-0-0-0-0-0-|-4--------|-(4)----|

|
 
 |-----------------------| TP TP
 | |-3-| |-3-| |-3-| |-3-|

| E E E E E E E E E E E E W +W
 
 |-------------------------|----------|--------|
 |-------------------------|----------|--------|
 |-------------------------|----------|--------|
 |-------------------------|----------|--------|
 |-2-2-2-2-2-2-2-2-2-2-2-2-|-6--------|-(6)----|
 |-0-0-0-0-0-0-0-0-0-0-0-0-|-4--------|-(4)----|

[G5]Gtr I
|-3-| |-3-|
Q a E E E E. S a E E E
 
 |--------------------------------|
 |--------------------------------|
 |--------------------------------|
 |--------------------------------|
 |-5-----3s5-5-5-5------5-3s5-5-5-|
 |-3-----1s3-3-3-3------3-1s3-3-3-|

|
| Gtr II
 
 | PM------------------------------
 | |-3-| |-3-| |-3--| |-3-|

| E E E E E E E E E E E E
 
 |--------------------------------|
 |--------------------------------|
 |--------------------------------|
 |--------------------------------|
 |-5-5-5---5-5-5-5--5-5-----5-5-5-|
 |-3-3-3---3-3-3-3--3-3-----3-3-3-|

|-3-| |-3-|[F#5]
E. S a E E E E. S a E E E Q Q Q Q
 
 |-----------------------------------|--------------------------|
 |-----------------------------------|--------------------------|
 |-----------------------------------|--------------------------|
 |-----------------------------------|--------------------------|
 |-5------5-3s5-5-5-5------5-3s5-5-5-|-4-----4-----4-----4------|
 |-3------3-1s3-3-3-3------3-1s3-3-3-|-2-----2-----2-----2------|

|
 
 |-----------------------------------------------------------|
 | |-3--| |-3-| |-3--| |-3-| |-3-| |-3-| |-3-| |-3-|

| E E E E E E E E E E E E E E E E E E E E E E E E
 
 |-----------------------------------|--------------------------|
 |-----------------------------------|--------------------------|
 |-----------------------------------|--------------------------|
 |-----------------------------------|--------------------------|
 |-5--5-5-----5-5-5-5--5-5-----5-5---|-4-4-4-4-4-4-4-4-4-4-4-4--|
 |-3--3-3-----3-3-3-3--3-3-----3-3-0-|-2-2-2-2-2-2-2-2-2-2-2-2--|

Gtr I[Eb5] [D5/A]
 
 |-3-| |-3-| |-3-| |-3-|

Q Q Q Q E E E E E E E E E E E E
 
 |----------------------|-------------------------|
 |----------------------|-------------------------|
 |----------------------|-------------------------|
 |-------------------8--|-7-7-7-7-7-7-7-7-7-7-7-7-|
 |-4-----4-----4-----6--|-5-5-5-5-5-5-5-5-5-5-5-5-|
 |-2-----2-----2--------|-5-5-5-5-5-5-5-5-5-5-5-5-|

|
| Gtr II
 
 | PM--------|
 | |-3-| |-3-| |-3-| |-3-| |-3-| |-3-| |-3-|

| E E E E E E E E E Q E E E E E E E E E E E E
 
 |----------------------|-------------------------|
 |----------------------|-------------------------|
 |----------------------|-------------------------|
 |-------------------8--|-7-7-7-7-7-7-7-7-7-7-7-7-|
 |-4-4-4-4-4-4-4-4---6--|-5-5-5-5-5-5-5-5-5-5-5-5-|
 |-2-2-2-2-2-2-2-2h3----|-5-5-5-5-5-5-5-5-5-5-5-5-|

TP TP TP TP TP TP TP TP
 
 |-3-| |-3-| |-3-| |-3-|

E E E E E E E E E E E E Q Q Q Q Q Q Q Q
 
 |-------------------------|-------------|---------------|
 |-------------------------|-------------|---------------|
 |-------------------------|----8--7-----|----8--7-------|
 |-7-7-7-7-7-7-7-7-7-7-7-7-|-6--------8--|-9--------9----|
 |-5-5-5-5-5-5-5-5-5-5-5-5-|-------------|---------------|
 |-5-5-5-5-5-5-5-5-5-5-5-5-|-------------|---------------|

|
| TP TP TP TP TP TP TP TP
 
 | |-3-| |-3-| |-3-| |-3-|

| E E E E E E E E E E E E Q Q Q Q Q Q Q Q
 
 |-------------------------|-------------|---------------|
 |-------------------------|-------------|---------------|
 |-------------------------|----8--7-----|----8--7-------|
 |-7-7-7-7-7-7-7-7-7-7-7-7-|-6--------8--|-9--------9----|
 |-5-5-5-5-5-5-5-5-5-5-5-5-|-------------|---------------|
 |-5-5-5-5-5-5-5-5-5-5-5-5-|-------------|---------------|

[G5]Gtr I
|-3-| |-3-|
Q a E E E E. S a E E E Q Q Q Q
 
 |--------------------------------|-------------------------|
 |--------------------------------|-8-----7-----9-----8-----|
 |--------------------------------|-------------------------|
 |--------------------------------|-5-----4-----6-----5-----|
 |-5-----3s5-5-5-5------5-3s5-5-5-|-------------------------|
 |-3-----1s3-3-3-3------3-1s3-3-3-|-------------------------|

|
| Gtr II
 
 | PM-----------------------------------------------------|
 | |-3-| |-3-| |-3--| |-3-| |-3-| |-3-| |-3-| |-3-|

| E E E E E E E E E E E E E E E E E E E E E E E E
 
 |--------------------------------|-------------------------|
 |--------------------------------|-------------------------|
 |--------------------------------|-------------------------|
 |--------------------------------|-------------------------|
 |-5-5-5---5-5-5-5--5-5-----5-5-5-|-5-5-5-5-5-5-5-5-5-5-5-5-|
 |-3-3-3---3-3-3-3--3-3-----3-3-3-|-3-3-3-3-3-3-3-3-3-3-3-3-|

~
Q Q Q Q Q Q Q Q
 
 |-------------------------|----------------------||
 |-------------------------|----------------------||
 |-------------------------|----------------------||
 |-4tr5--4tr5--4tr5--4tr5--|-4tr5--4tr5--4tr5-----||
 |-------------------------|-------------------6--||
 |-------------------------|----------------------||

|
| Q Q Q Q Q Q Q Q
 
 |-------------------------|----------------------||
 |-------------------------|----------------------||
 |-------------------------|----------------------||
 |-4tr5--4tr5--4tr5--4tr5--|-4tr5--4tr5--4tr5--8--||
 |-------------------------|-------------------6--||
 |-------------------------|----------------------||

Chorus
[E5/B]Gtr I[E5/B] [D5/A] [D5/A]
 
 PM----| PM----| PM----| PM----| ~

|-3-|
Q S S S S Q S S S S Q S S S S Q S S S S E E S S S E Q E E
 
 |-----------------------|-----------------------|--------------------|
 |-----------------------|-----------------------|--------------------|
 |-----------------------|-----------------------|--------------------|
 |-9----------9----------|-7----------7----------|-5-7-5h7p5-4------5-|
 |-7----------7----------|-5----------5----------|-------------7--7---|
 |-7--7-7-7-7-7--7-7-7-7-|-5--5-5-5-5-5--5-5-5-5-|--------------------|

|
| Gtr II
 
 | PM----| PM----| PM----| PM----| ~

| Q S S S S Q S S S S Q S S S S Q S S S S E E E E Q E E
 
 |-----------------------|-----------------------|--------------------|
 |-----------------------|-----------------------|--------------------|
 |-----------------------|-----------------------|--------------------|
 |-9----------9----------|-7----------7----------|-5-7-5-----4------5-|
 |-7----------7----------|-5----------5----------|-------------7------|
 |-7--7-7-7-7-7--7-7-7-7-|-5--5-5-5-5-5--5-5-5-5-|--------------------|

Gtr I[E5/B] [E5/B]
 
 PM----| PM----|

E E E E E E E E Q S S S S Q S S S S
 
 |-----------------|-----------------------|
 |-----------------|-----------------------|
 |-----------------|-----------------------|
 |-4-5-2-5---5---5-|-9----------9----------|
 |---------5---2---|-7----------7----------|
 |-----------------|-7--7-7-7-7-7--7-7-7-7-|

|
| Gtr II
 
 | PM----| PM----|

| E E E E E E E E Q S S S S Q S S S S
 
 |-----------------|-----------------------|
 |-----------------|-----------------------|
 |-----------------|-----------------------|
 |-4-5-2-5---5---5-|-9----------9----------|
 |---------5---2---|-7----------7----------|
 |-----------------|-7--7-7-7-7-7--7-7-7-7-|

[D5/A] [D5/A]  
 
 PM----| PM----| ~

|-3-|
Q S S S S Q S S S S E E S S S E Q E E
 
 |-----------------------|---------------------|
 |-----------------------|---------------------|
 |-----------------------|---------------------|
 |-7----------7----------|-5-7-5h7p5-4-5--5-9--|
 |-5----------5----------|---------------------|
 |-5--5-5-5-5-5--5-5-5-5-|---------------------|

|
 
 | PM----| PM----| ~

| Q S S S S Q S S S S E E E E Q E E
 
 |-----------------------|---------------------|
 |-----------------------|---------------------|
 |-----------------------|---------------------|
 |-7----------7----------|-5-7-5-----4------5--|
 |-5----------5----------|-------------7-------|
 |-5--5-5-5-5-5--5-5-5-5-|---------------------|

Gtr I
~
E E E E E E E E Q +Q H Wx13
 
 |-----------------|---------------|---------||
 |-----------------|---------------|---------||
 |-----------------|---------------|---------||
 |-7-9-5-9---9---9-|-5--(5)\-------|---------||
 |---------9---7---|---------------|---------||
 |-----------------|---------------|---------||

|
| Gtr II
| ~
| E E E E E E E E Q +Q H Wx13
 
 |-----------------|---------------|---------||
 |-----------------|---------------|---------||
 |-----------------|-4--(4)\-------|---------||
 |-4-5-2-5---5---5-|---------------|---------||
 |---------5---2---|---------------|---------||
 |-----------------|---------------|---------||

Pre-Chorus
[E5]Gtr I
 
 PM--------------------------------------------------------------|

S S S S S S S S S S S S S S S S S S S S S S S S S S S S S S S S
 
 ||----------------------------------|---------------------------------|
 ||o---------------------------------|---------------------------------|
 ||----------------------------------|---------------------------------|
 ||----------------------------------|---------------------------------|
 ||o-2-2-2-2-2-2-2-2-2-2-2-2-2-2-2-2-|-2-2-2-2-2-2-2-2-2-2-2-2-2-2-2-2-|
 ||--0-0-0-0-0-0-0-0-0-0-0-0-0-0-0-0-|-0-0-0-0-0-0-0-0-0-0-0-0-0-0-0-0-|

|
| Gtr II
 
 | PM--------------------------------------------------------------|

| S S S S S S S S S S S S S S S S S S S S S S S S S S S S S S S S
 
 ||----------------------------------|---------------------------------|
 ||o---------------------------------|---------------------------------|
 ||----------------------------------|---------------------------------|
 ||----------------------------------|---------------------------------|
 ||o-2-2-2-2-2-2-2-2-2-2-2-2-2-2-2-2-|-2-2-2-2-2-2-2-2-2-2-2-2-2-2-2-2-|
 ||--0-0-0-0-0-0-0-0-0-0-0-0-0-0-0-0-|-0-0-0-0-0-0-0-0-0-0-0-0-0-0-0-0-|

~~ ~ ~
|-3-|
Q. E S S S E E E E E Q Q Q
 
 |--------------------|---------------||
 |--------------------|--------------o||
 |--------------------|---------------||
 |--------------------|---------------||
 |-1----3-1h3p1-0-1-0-|--------------o||
 |--------------------|-3-2-2--2--3---||

|
| ~~ ~ ~
| Q. E E E E E E E Q Q Q
 
 |--------------------|---------------||
 |--------------------|--------------o||
 |--------------------|---------------||
 |--------------------|---------------||
 |-1----3-1-----0-1-0-|--------------o||
 |--------------------|-3-2-2--2--3---||

Gtr I
 
 PM----| PM----| PM----| PM----|

Q S S S S Q S S S S Q S S S S Q S S S S
 
 ||----------------------------------|---------------------------------|
 ||o---------------------------------|---------------------------------|
 ||----------------------------------|---------------------------------|
 ||----------------------------------|---------------------------------|
 ||o---------2-2-2-2---------2-2-2-2-|---------2-2-2-2---------2-2-2-2-|
 ||----------0-0-0-0---------0-0-0-0-|---------0-0-0-0---------0-0-0-0-|

|
| Gtr II
 
 | PM--------------------------------------------------------------|

| S S S S S S S S S S S S S S S S S S S S S S S S S S S S S S S S
 
 ||----------------------------------|---------------------------------|
 ||o---------------------------------|---------------------------------|
 ||----------------------------------|---------------------------------|
 ||----------------------------------|---------------------------------|
 ||o-2-2-2-2-2-2-2-2-2-2-2-2-2-2-2-2-|-2-2-2-2-2-2-2-2-2-2-2-2-2-2-2-2-|
 ||--0-0-0-0-0-0-0-0-0-0-0-0-0-0-0-0-|-0-0-0-0-0-0-0-0-0-0-0-0-0-0-0-0-|

~~~ ~~~~~~~~~
|-3--|
Q. E S S S E E E E E Q Q Q
 
 |-----------------------|-----------------||
 |-----------------------|----------------o||
 |-----------------------|-----------------||
 |-/8----10-8h10p8-7-8-7-|-----------------||
 |-----------------------|-10-9-9--9--10--o||
 |-----------------------|-----------------||

|
| ~~~ ~ ~~
| |-3--|
| Q. E S S S E E E E E Q Q Q
 
 |-----------------------|-----------------||
 |-----------------------|----------------o||
 |-----------------------|-----------------||
 |-----------------------|-----------------||
 |--1-----3-1h=3p1-0-1-0-|----------------o||
 |-----------------------|--3-2-2--2---3---||

Chorus
[E5/B] [E5/B] [D5/A] [D5/A]  
 
 PM----| PM----| PM----| PM----| ~

|-3-|
Q S S S S Q S S S S Q S S S S Q S S S S E E S S S E Q E E
 
 ||------------------------|-----------------------|---------------------|
 ||o-----------------------|-----------------------|---------------------|
 ||------------------------|-----------------------|---------------------|
 ||--9----------9----------|-7----------7----------|-5-7-5h7p5-4------5--|
 ||o-7----------7----------|-5----------5----------|-------------7--7----|
 ||--7--7-7-7-7-7--7-7-7-7-|-5--5-5-5-5-5--5-5-5-5-|---------------------|

|
 
 | PM----| PM----| PM----| PM----| ~

| Q S S S S Q S S S S Q S S S S Q S S S S E E E E Q E E
 
 ||------------------------|-----------------------|---------------------|
 ||o-----------------------|-----------------------|---------------------|
 ||------------------------|-----------------------|---------------------|
 ||--9----------9----------|-7----------7----------|-5-7-5-----4------5--|
 ||o-7----------7----------|-5----------5----------|-------------7-------|
 ||--7--7-7-7-7-7--7-7-7-7-|-5--5-5-5-5-5--5-5-5-5-|---------------------|

[E5/B] [E5/B]  
 
 PM----| PM----|

E E E E E E E E Q S S S S Q S S S S
 
 |-----------------|-----------------------|
 |-----------------|-----------------------|
 |-----------------|-----------------------|
 |-4-5-2-5---5---5-|-9----------9----------|
 |---------5---2---|-7----------7----------|
 |-----------------|-7--7-7-7-7-7--7-7-7-7-|

|
 
 | PM----| PM----|

| E E E E E E E E Q S S S S Q S S S S
 
 |-----------------|-----------------------|
 |-----------------|-----------------------|
 |-----------------|-----------------------|
 |-4-5-2-5---5---5-|-9----------9----------|
 |---------5---2---|-7----------7----------|
 |-----------------|-7--7-7-7-7-7--7-7-7-7-|

[D5/A] [D5/A]  
 
 PM----| PM----| ~

|-3-|
Q S S S S Q S S S S E E S S S E Q E E E E E E E E E E
 
 |-----------------------|--------------------|------------------||
 |-----------------------|--------------------|-----------------o||
 |-----------------------|--------------------|------------------||
 |-7----------7----------|-5-7-5h7p5-4-5--5-9-|-7-9-5-9---9---9--||
 |-5----------5----------|--------------------|---------9---7---o||
 |-5--5-5-5-5-5--5-5-5-5-|--------------------|------------------||

|
 
 | PM----| PM--| ~

| Q S S S S Q S S S S E E E E Q E E E E E E E E E E
 
 |-----------------------|--------------------|------------------||
 |-----------------------|--------------------|-----------------o||
 |-----------------------|--------------------|------------------||
 |-7----------7----------|-5-7-5-----4------5-|-4-5-2-5---5---5--||
 |-5----------5----------|-------------7------|---------5---2---o||
 |-5--5-5-5-5-5--5-5-5-5-|--------------------|------------------||

Post-Chorus
TPTP TPTPTPTP TPTP TPTP TPTPTPTP TPTP
[E] [E] [E] [E] [E] [E] [E] [E] [E] [E] [E] [E] [E] [E] [E] [E]  
 
 ||--------------------|-------------------|
 ||o-------------------|-------------------|
 ||--------------------|-------------------|
 ||--------------------|-------------------|
 ||o-7-9-10-9-7-9-10-9-|---9-10-9---9-10-9-|
 ||--------------------|-7--------7--------|

|
| TPTP TPTPTPTP TPTP TPTP TPTPTPTP TPTP
| E E E E E E E E E E E E E E E E
 
 ||--------------------|-------------------|
 ||o-------------------|-------------------|
 ||--------------------|-------------------|
 ||--------------------|-------------------|
 ||o-7-9-10-9-7-9-10-9-|---9-10-9---9-10-9-|
 ||--------------------|-7--------7--------|

1.
TPTP TPTPTPTP TPTP TPTP TPTP TP TPTP TP
[E] [E] [E] [E] [E] [E] [E] [E] [E] [E] [E] [E] [E] [E] [E] [E]  
 
 |-------------------|-----------------------||
 |-------------------|----------------------o||
 |-------------------|-----------------------||
 |-------------------|-----------------------||
 |---9-10-9---9-10-9-|----9-10-9-12-10-9-10-o||
 |-8--------8--------|-10--------------------||

|
| TPTP TPTPTPTP TPTP TPTP TPTP TP TPTP TP
| E E E E E E E E E E E E E E E E
 
 |-------------------|-----------------------||
 |-------------------|----------------------o||
 |-------------------|-----------------------||
 |-------------------|-----------------------||
 |---9-10-9---9-10-9-|----9-10-9-12-10-9-10-o||
 |-8--------8--------|-10--------------------||

2.
TPTP TPTP TP TP TP TP TPTP TPTPTPTP TPTP
[E] [E] [E] [E] [E] [E] [E] [E] [E] [E] [E] [E] [E] [E] [E] [E]  
 
 |-----------------------||--------------------|
 |-----------------------||o-------------------|
 |-----------------------||--------------------|
 |---------------9-------||--------------------|
 |----9-10-9-12----10--9-||o-7-9-10-9-7-9-10-9-|
 |-10--------------------||--------------------|

|
| TPTP TPTP TP TP TP TP TPTP TPTPTPTP TPTP
| E E E E E E E E E E E E E E E E
 
 |-----------------------||--------------------|
 |-----------------------||o-------------------|
 |-----------------------||--------------------|
 |-----------------------||--------------------|
 |----9-10-9-12-10--9-10-||o-7-9-10-9-7-9-10-9-|
 |-10--------------------||--------------------|

TP TP TP TP TP TP TP TP TPTP TPTPTPTP TPTP
[E] [E] [E] [E] [E] [E] [E] [E] [E] [E] [E] [E] [E] [E] [E] [E]  
 
 |-------------------------|--------------------|
 |-------------------------|--------------------|
 |-------------------------|--------------------|
 |-------------------------|--------------------|
 |-10-12-14-12-10-12-14-12-|-7-9-10-9-7-9-10-9--|
 |-------------------------|--------------------|

|
| TP TP TP TP TP TP TP TP TPTP TPTPTPTP TPTP
| E E E E E E E E E E E E E E E E
 
 |-------------------------|--------------------|
 |-------------------------|--------------------|
 |-------------------------|--------------------|
 |-------------------------|--------------------|
 |-----9-10--9-----9-10--9-|---9-10-9---9-10-9--|
 |--7-----------7----------|-8--------8---------|

TP TP TP TP TP TP TP TP
[E] [E] [E] [E] [E] [E] [E] [E]  
 
 |--------------------------||-|
 |-------------------------o||-|
 |--------------------------||-|
 |-------------10-----------||-|
 |-10-12-14-12----14-12-14-o||-|
 |--------------------------||-|

|
| TP TP TP TP TP TP TP TP
| E E E E E E E E
 
 |--------------------------||-|
 |-------------------------o||-|
 |--------------------------||-|
 |--------------------------||-|
 |-----9-10--9-12-10--9-10-o||-|
 |-10-----------------------||-|

Breakdown
1.
|-3-|
E S E S S S E S E S S S E S E S S S E E S S S S S
 
 ||--------------------------|----------------------------||
 ||o-------------------------|---------------------------o||
 ||--------------------------|----------------------------||
 ||--------------------------|-------------5-6-3----------||
 ||o-8S7-7-7-7-7-5S7-7-7-7-7-|-8S7-7-7-7-7-3-4-1h3p1-0-0-o||
 ||--6S5-5-5-5-5-3S5-5-5-5-5-|-6S5-5-5-5-5----------------||

|
| |-3-|
| E S E S S S E S E S S S E S E S S S E E S S S S S
 
 ||--------------------------|----------------------------||
 ||o-------------------------|---------------------------o||
 ||--------------------------|----------------------------||
 ||--------------------------|-------------5-6-3----------||
 ||o-8S7-7-7-7-7-5S7-7-7-7-7-|-8S7-7-7-7-7-3-4-1h3p1-0-0-o||
 ||--6S5-5-5-5-5-3S5-5-5-5-5-|-6S5-5-5-5-5----------------||

2.
E S E S S S H E S E S S S E S E S S S
 
 |-------------------||--------------------------|
 |-------------------||o-------------------------|
 |-------------10----||--------------------------|
 |-------------10----||--------------------------|
 |-8S7-7-7-7-7--8----||o-8S7-7-7-7-7-5S7-7-7-7-7-|
 |-6S5-5-5-5-5-------||--6S5-5-5-5-5-3S5-5-5-5-5-|

|
| E S E S S S H E S E S S S E S E S S S
 
 |-------------------||--------------------------|
 |-------------------||o-------------------------|
 |-------------------||--------------------------|
 |--------------3----||--------------------------|
 |-8S7-7-7-7-7--3----||o-8S7-7-7-7-7-5S7-7-7-7-7-|
 |-6S5-5-5-5-5--1----||--6S5-5-5-5-5-3S5-5-5-5-5-|

1. 2.
|-3-|
E S E S S S E E S S S S S E S E S S S H
 
 |----------------------------||------------------|
 |---------------------------o||------------------|
 |----------------------------||-------------6----|
 |-------------5-6-3----------||-------------6----|
 |-8S7-7-7-7-7-3-4-1h3p1-0-0-o||-8S7-7-7-7-7-4----|
 |-6S5-5-5-5-5----------------||-6S5-5-5-5-5------|

|
| |-3-|
| E S E S S S E E S S S S S E S E S S S H
 
 |----------------------------||------------------|
 |---------------------------o||------------------|
 |----------------------------||-------------6----|
 |-------------5-6-3----------||-------------6----|
 |-8S7-7-7-7-7-3-4-1h3p1-0-0-o||-8S7-7-7-7-7-4----|
 |-6S5-5-5-5-5----------------||-6S5-5-5-5-5------|

Verse
[D5/A]  
 
 |-3-| |-3-| |-3-| |-3-| |-3-| |-3-| |-3-| |-3-|

[E] [E] [E] [E] [E] [E] [E] [E] [E] [E] [E] [E] [E] [E] [E] [E] [E] [E] [E] [E] [E] [E] [E] [E]  
 
 |-------------------------|-------------------------|
 |-------------------------|-------------------------|
 |-------------------------|-------------------------|
 |-7-7-7-7-7-7-7-7-7-7-7-7-|-7-7-7-7-7-7-7-7-7-7-7-7-|
 |-5-5-5-5-5-5-5-5-5-5-5-5-|-5-5-5-5-5-5-5-5-5-5-5-5-|
 |-5-5-5-5-5-5-5-5-5-5-5-5-|-5-5-5-5-5-5-5-5-5-5-5-5-|

|
 
 | |-3-| |-3-| |-3-| |-3-| |-3-| |-3-| |-3-| |-3-|

| E E E E E E E E E E E E E E E E E E E E E E E E
 
 |-------------------------|-------------------------|
 |-------------------------|-------------------------|
 |-------------------------|-------------------------|
 |-7-7-7-7-7-7-7-7-7-7-7-7-|-7-7-7-7-7-7-7-7-7-7-7-7-|
 |-5-5-5-5-5-5-5-5-5-5-5-5-|-5-5-5-5-5-5-5-5-5-5-5-5-|
 |-5-5-5-5-5-5-5-5-5-5-5-5-|-5-5-5-5-5-5-5-5-5-5-5-5-|

TP TP[G5]
|-3-| |-3-|
W +W Q a E E E E. S a E E E
 
 |----------|------------|--------------------------------|
 |----------|------------|--------------------------------|
 |----------|------------|--------------------------------|
 |----------|------------|--------------------------------|
 |-6--------|-(6)--------|-5-----3s5-5-5-5------5-3s5-5-5-|
 |-4--------|-(4)--------|-3-----1s3-3-3-3------3-1s3-3-3-|

|
 
 | TP TP PM------------------------------
 | |-3-| |-3-| |-3--| |-3-|

| W +W E E E E E E E E E E E E
 
 |----------|------------|--------------------------------|
 |----------|------------|--------------------------------|
 |----------|------------|--------------------------------|
 |----------|------------|--------------------------------|
 |-6--------|-(6)--------|-5-5-5---5-5-5-5--5-5-----5-5-5-|
 |-4--------|-(4)--------|-3-3-3---3-3-3-3--3-3-----3-3-3-|

|-3-| |-3-|
E. S a E E E E. S a E E E
 
 |-----------------------------------|
 |-----------------------------------|
 |-----------------------------------|
 |-----------------------------------|
 |-5------5-3s5-5-5-5------5-3s5-5-5-|
 |-3------3-1s3-3-3-3------3-1s3-3-3-|

|
 
 |---------------------------------|
 | |-3--| |-3-| |-3--| |-3-|

| E E E E E E E E E E E E
 
 |-----------------------------------|
 |-----------------------------------|
 |-----------------------------------|
 |-----------------------------------|
 |-5--5-5-----5-5-5-5--5-5-----5-5---|
 |-3--3-3-----3-3-3-3--3-3-----3-3-0-|

[F#5] [Eb5]  
 
 PM----------------------------------------|
 |-3-| |-3-| |-3-| |-3-| |-3-| |-3-| |-3-|

E E E E E E E E E E E E E E E E E E E E E Q
 
 |-------------------------|----------------------|
 |-------------------------|----------------------|
 |-------------------------|----------------------|
 |-------------------------|-------------------8--|
 |-4-4-4-4-4-4-4-4-4-4-4-4-|-4-4-4-4-4-4-4-4-4-6--|
 |-2-2-2-2-2-2-2-2-2-2-2-2-|-2-2-2-2-2-2-2-2-2----|

|
 
 | PM--------------------------------------|
 | |-3-| |-3-| |-3-| |-3-| |-3-| |-3-| |-3-|

| E E E E E E E E E E E E E E E E E E E E E Q
 
 |-------------------------|----------------------|
 |-------------------------|----------------------|
 |-------------------------|----------------------|
 |-------------------------|-------------------8--|
 |-4-4-4-4-4-4-4-4-4-4-4-4-|-4-4-4-4-4-4-4-4---6--|
 |-2-2-2-2-2-2-2-2-2-2-2-2-|-2-2-2-2-2-2-2-2h3----|

[D5/A]  
 
 |-3-| |-3-| |-3-| |-3-| |-3-| |-3-| |-3-| |-3-|

[E] [E] [E] [E] [E] [E] [E] [E] [E] [E] [E] [E] [E] [E] [E] [E] [E] [E] [E] [E] [E] [E] [E] [E]  
 
 |-------------------------|-------------------------|
 |-------------------------|-------------------------|
 |-------------------------|-------------------------|
 |-7-7-7-7-7-7-7-7-7-7-7-7-|-7-7-7-7-7-7-7-7-7-7-7-7-|
 |-5-5-5-5-5-5-5-5-5-5-5-5-|-5-5-5-5-5-5-5-5-5-5-5-5-|
 |-5-5-5-5-5-5-5-5-5-5-5-5-|-5-5-5-5-5-5-5-5-5-5-5-5-|

|
 
 | |-3-| |-3-| |-3-| |-3-| |-3-| |-3-| |-3-| |-3-|

| E E E E E E E E E E E E E E E E E E E E E E E E
 
 |-------------------------|-------------------------|
 |-------------------------|-------------------------|
 |-------------------------|-------------------------|
 |-7-7-7-7-7-7-7-7-7-7-7-7-|-7-7-7-7-7-7-7-7-7-7-7-7-|
 |-5-5-5-5-5-5-5-5-5-5-5-5-|-5-5-5-5-5-5-5-5-5-5-5-5-|
 |-5-5-5-5-5-5-5-5-5-5-5-5-|-5-5-5-5-5-5-5-5-5-5-5-5-|

TP TP TP TP TP TP TP TP
Q Q Q Q Q Q Q Q
 
 |-------------|-------------|
 |-------------|-------------|
 |----8--7-----|----8--7-----|
 |-6--------8--|-9--------9--|
 |-------------|-------------|
 |-------------|-------------|

|
| TP TP TP TP TP TP TP TP
| Q Q Q Q Q Q Q Q
 
 |-------------|-------------|
 |-------------|-------------|
 |----8--7-----|----8--7-----|
 |-6--------8--|-9--------9--|
 |-------------|-------------|
 |-------------|-------------|

[G5] |-3-| |-3-|
Q a E E E E. S a E E E Q Q Q Q
 
 |--------------------------------|-------------------------|
 |--------------------------------|-8-----7-----9-----8-----|
 |--------------------------------|-------------------------|
 |--------------------------------|-5-----4-----6-----5-----|
 |-5-----3s5-5-5-5------5-3s5-5-5-|-------------------------|
 |-3-----1s3-3-3-3------3-1s3-3-3-|-------------------------|

|
 
 | PM-----------------------------------------------------|
 | |-3-| |-3-| |-3--| |-3-| |-3-| |-3-| |-3-| |-3-|

| E E E E E E E E E E E E E E E E E E E E E E E E
 
 |--------------------------------|-------------------------|
 |--------------------------------|-------------------------|
 |--------------------------------|-------------------------|
 |--------------------------------|-------------------------|
 |-5-5-5---5-5-5-5--5-5-----5-5-5-|-5-5-5-5-5-5-5-5-5-5-5---|
 |-3-3-3---3-3-3-3--3-3-----3-3-3-|-3-3-3-3-3-3-3-3-3-3-3-0-|

~~~~~~~
Q Q Q Q Q Q Q Q Q +Q H Wx13
 
 |-------------------------|----------------------|---------------|---------|
 |-------------------------|----------------------|---------------|---------|
 |-------------------------|----------------------|---------------|---------|
 |-4tr5--4tr5--4tr5--4tr5--|-4tr5--4tr5--4tr5-----|-5--(5)\-------|---------|
 |-------------------------|-------------------6--|---------------|---------|
 |-------------------------|----------------------|---------------|---------|

|
| ~
| Q Q Q Q Q Q Q Q Q +Q H Wx13
 
 |-------------------------|----------------------|---------------|---------|
 |-------------------------|----------------------|---------------|---------|
 |-------------------------|----------------------|---------------|---------|
 |-4tr5--4tr5--4tr5--4tr5--|-4tr5--4tr5--4tr5--8--|---------------|---------|
 |-------------------------|-------------------6--|-7--(7)\-------|---------|
 |-------------------------|----------------------|---------------|---------|

Pre-Chorus
[E5]  
 
 PM--------------------------------------------------------------|

S S S S S S S S S S S S S S S S S S S S S S S S S S S S S S S S
 
 ||----------------------------------|---------------------------------|
 ||o---------------------------------|---------------------------------|
 ||----------------------------------|---------------------------------|
 ||----------------------------------|---------------------------------|
 ||o-2-2-2-2-2-2-2-2-2-2-2-2-2-2-2-2-|-2-2-2-2-2-2-2-2-2-2-2-2-2-2-2-2-|
 ||--0-0-0-0-0-0-0-0-0-0-0-0-0-0-0-0-|-0-0-0-0-0-0-0-0-0-0-0-0-0-0-0-0-|

|
 
 | PM--------------------------------------------------------------|

| S S S S S S S S S S S S S S S S S S S S S S S S S S S S S S S S
 
 ||----------------------------------|---------------------------------|
 ||o---------------------------------|---------------------------------|
 ||----------------------------------|---------------------------------|
 ||----------------------------------|---------------------------------|
 ||o-2-2-2-2-2-2-2-2-2-2-2-2-2-2-2-2-|-2-2-2-2-2-2-2-2-2-2-2-2-2-2-2-2-|
 ||--0-0-0-0-0-0-0-0-0-0-0-0-0-0-0-0-|-0-0-0-0-0-0-0-0-0-0-0-0-0-0-0-0-|

~~ ~ ~
|-3-|
Q. E S S S E E E E E Q Q Q
 
 |--------------------|---------------||
 |--------------------|--------------o||
 |--------------------|---------------||
 |--------------------|---------------||
 |-1----3-1h3p1-0-1-0-|--------------o||
 |--------------------|-3-2-2--2--3---||

|
| ~~ ~ ~
| Q. E E E E E E E Q Q Q
 
 |--------------------|---------------||
 |--------------------|--------------o||
 |--------------------|---------------||
 |--------------------|---------------||
 |-1----3-1-----0-1-0-|--------------o||
 |--------------------|-3-2-2--2--3---||
 PM----| PM----| PM----| PM----|

Q S S S S Q S S S S Q S S S S Q S S S S
 
 ||----------------------------------|---------------------------------|
 ||o---------------------------------|---------------------------------|
 ||----------------------------------|---------------------------------|
 ||----------------------------------|---------------------------------|
 ||o---------2-2-2-2---------2-2-2-2-|---------2-2-2-2---------2-2-2-2-|
 ||----------0-0-0-0---------0-0-0-0-|---------0-0-0-0---------0-0-0-0-|

|
 
 | PM--------------------------------------------------------------|

| S S S S S S S S S S S S S S S S S S S S S S S S S S S S S S S S
 
 ||----------------------------------|---------------------------------|
 ||o---------------------------------|---------------------------------|
 ||----------------------------------|---------------------------------|
 ||----------------------------------|---------------------------------|
 ||o-2-2-2-2-2-2-2-2-2-2-2-2-2-2-2-2-|-2-2-2-2-2-2-2-2-2-2-2-2-2-2-2-2-|
 ||--0-0-0-0-0-0-0-0-0-0-0-0-0-0-0-0-|-0-0-0-0-0-0-0-0-0-0-0-0-0-0-0-0-|

~~~ ~~~~~~~~~
|-3--|
Q. E S S S E E E E E Q Q Q
 
 |-----------------------|-----------------||
 |-----------------------|----------------o||
 |-----------------------|-----------------||
 |-/8----10-8h10p8-7-8-7-|-----------------||
 |-----------------------|-10-9-9--9--10--o||
 |-----------------------|-----------------||

|
| ~~~ ~ ~~
| |-3--|
| Q. E S S S E E E E E Q Q Q
 
 |-----------------------|-----------------||
 |-----------------------|----------------o||
 |-----------------------|-----------------||
 |-----------------------|-----------------||
 |--1-----3-1h=3p1-0-1-0-|----------------o||
 |-----------------------|--3-2-2--2---3---||

[D5/A]Q S S S S [D5/A]Q S S S S [C5/G]Q S S S S [C5/G]Q S S S S
 
 ||------------------------|-----------------------|
 ||o-----------------------|-----------------------|
 ||------------------------|-----------------------|
 ||--7----------7----------|-5----------5----------|
 ||o-5----------5----------|-3----------3----------|
 ||--5--5-5-5-5-5--5-5-5-5-|-3--3-3-3-3-3--3-3-3-3-|

|
| Q S S S S Q S S S S Q S S S S Q S S S S
 
 ||------------------------|-----------------------|
 ||o-----------------------|-----------------------|
 ||------------------------|-----------------------|
 ||--7----------7----------|-5----------5----------|
 ||o-5----------5----------|-3----------3----------|
 ||--5--5-5-5-5-5--5-5-5-5-|-3--3-3-3-3-3--3-3-3-3-|

~
|-3-|
E E S S S E Q E E E E E E E E E E
 
 |--------------------|-----------------|
 |--------------------|-----------------|
 |--------------------|-----------------|
 |-3-5-3h5p3-2------3-|-2-3-0-3---3---3-|
 |-------------5--5---|---------3---0---|
 |--------------------|-----------------|

|
| ~
| E E E E Q E E E E E E E E E E
 
 |--------------------|-----------------|
 |--------------------|-----------------|
 |--------------------|-----------------|
 |-3-5-3-----2------3-|-2-3-0-3---3---3-|
 |-------------5------|---------3---0---|
 |--------------------|-----------------|

[D5/A]Q S S S S [D5/A]Q S S S S [C5/G]Q S S S S [C5/G]Q S S S S
 
 |-----------------------|-----------------------|
 |-----------------------|-----------------------|
 |-----------------------|-----------------------|
 |-7----------7----------|-5----------5----------|
 |-5----------5----------|-3----------3----------|
 |-5--5-5-5-5-5--5-5-5-5-|-3--3-3-3-3-3--3-3-3-3-|

|
| Q S S S S Q S S S S Q S S S S Q S S S S
 
 |-----------------------|-----------------------|
 |-----------------------|-----------------------|
 |-----------------------|-----------------------|
 |-7----------7----------|-5----------5----------|
 |-5----------5----------|-3----------3----------|
 |-5--5-5-5-5-5--5-5-5-5-|-3--3-3-3-3-3--3-3-3-3-|

~
|-3-|
E E S S S E Q E E E E E E E E E E
 
 |--------------------|-------------------||
 |--------------------|------------------o||
 |--------------------|-------------------||
 |-3-5-3h5p3-2-3--3-7-|-5-7-3-7---7---7---||
 |--------------------|---------7---5----o||
 |--------------------|-------------------||

|
| ~
| E E E E Q E E E E E E E E E E
 
 |--------------------|-------------------||
 |--------------------|------------------o||
 |--------------------|-------------------||
 |-3-5-3-----2------3-|-2-3-0-3---3---3---||
 |-------------5------|---------3---0----o||
 |--------------------|-------------------||

Chorus
[E5/B] [E5/B] [D5/A] [D5/A]  
 
 PM----| PM----| PM----| PM----|

Q S S S S Q S S S S Q S S S S Q S S S S
 
 ||------------------------|-----------------------|
 ||o-----------------------|-----------------------|
 ||------------------------|-----------------------|
 ||--9----------9----------|-7----------7----------|
 ||o-7----------7----------|-5----------5----------|
 ||--7--7-7-7-7-7--7-7-7-7-|-5--5-5-5-5-5--5-5-5-5-|

|
 
 | PM----| PM----| PM----| PM----|

| Q S S S S Q S S S S Q S S S S Q S S S S
 
 ||------------------------|-----------------------|
 ||o-----------------------|-----------------------|
 ||------------------------|-----------------------|
 ||--9----------9----------|-7----------7----------|
 ||o-7----------7----------|-5----------5----------|
 ||--7--7-7-7-7-7--7-7-7-7-|-5--5-5-5-5-5--5-5-5-5-|

~
|-3-|
E E S S S E Q E E E E E E E E E E
 
 |--------------------|-----------------|
 |--------------------|-----------------|
 |--------------------|-----------------|
 |-5-7-5h7p5-4------5-|-4-5-2-5---5---5-|
 |-------------7--7---|---------5---2---|
 |--------------------|-----------------|

|
| ~
| E E E E Q E E E E E E E E E E
 
 |--------------------|-----------------|
 |--------------------|-----------------|
 |--------------------|-----------------|
 |-5-7-5-----4------5-|-4-5-2-5---5---5-|
 |-------------7------|---------5---2---|
 |--------------------|-----------------|

[E5/B] [E5/B] [D5/A] [D5/A]  
 
 PM----| PM----| PM----| PM----|

Q S S S S Q S S S S Q S S S S Q S S S S
 
 |-----------------------|-----------------------|
 |-----------------------|-----------------------|
 |-----------------------|-----------------------|
 |-9----------9----------|-7----------7----------|
 |-7----------7----------|-5----------5----------|
 |-7--7-7-7-7-7--7-7-7-7-|-5--5-5-5-5-5--5-5-5-5-|

|
 
 | PM----| PM----| PM----| PM----|

| Q S S S S Q S S S S Q S S S S Q S S S S
 
 |-----------------------|-----------------------|
 |-----------------------|-----------------------|
 |-----------------------|-----------------------|
 |-9----------9----------|-7----------7----------|
 |-7----------7----------|-5----------5----------|
 |-7--7-7-7-7-7--7-7-7-7-|-5--5-5-5-5-5--5-5-5-5-|

~
|-3-|
E E S S S E Q E E E E E E E E E E
 
 |--------------------|-------------------||
 |--------------------|------------------o||
 |--------------------|-------------------||
 |-5-7-5h7p5-4-5--5-9-|-7-9-5-9---9---9---||
 |--------------------|---------9---7----o||
 |--------------------|-------------------||

|
| ~
| E E E E Q E E E E E E E E E E
 
 |--------------------|-------------------||
 |--------------------|------------------o||
 |--------------------|-------------------||
 |-5-7-5-----4------5-|-4-5-2-5---5---5---||
 |-------------7------|---------5---2----o||
 |--------------------|-------------------||

Post-Chorus
Gtr I
TPTP TPTPTPTP TPTP TPTP TPTPTPTP TPTP
[E] [E] [E] [E] [E] [E] [E] [E] [E] [E] [E] [E] [E] [E] [E] [E]  
 
 ||--------------------|-------------------|
 ||o-------------------|-------------------|
 ||--------------------|-------------------|
 ||--------------------|-------------------|
 ||o-7-9-10-9-7-9-10-9-|---9-10-9---9-10-9-|
 ||--------------------|-7--------7--------|

|
| Gtr II
| TPTP TPTPTPTP TPTP TPTP TPTPTPTP TPTP
| E E E E E E E E E E E E E E E E
 
 ||--------------------|-------------------|
 ||o-------------------|-------------------|
 ||--------------------|-------------------|
 ||--------------------|-------------------|
 ||o-7-9-10-9-7-9-10-9-|---9-10-9---9-10-9-|
 ||--------------------|-7--------7--------|

TPTP TPTPTPTP TPTP TPTP TPTP TP TP TP TP
[E] [E] [E] [E] [E] [E] [E] [E] [E] [E] [E] [E] [E] [E] [E] [E]  
 
 |-------------------|------------------------||
 |-------------------|-----------------------o||
 |-------------------|------------------------||
 |-------------------|---------------9--------||
 |---9-10-9---9-10-9-|----9-10-9-12----10--9-o||
 |-8--------8--------|-10---------------------||

|
| TPTP TPTPTPTP TPTP TPTP TPTP TP TP TP TP
| E E E E E E E E E E E E E E E E
 
 |-------------------|------------------------||
 |-------------------|-----------------------o||
 |-------------------|------------------------||
 |-------------------|------------------------||
 |---9-10-9---9-10-9-|----9-10-9-12-10--9-10-o||
 |-8--------8--------|-10---------------------||

TPTP TPTPTPTP TPTP TP TP TP TP TP TP TP TP
[E] [E] [E] [E] [E] [E] [E] [E] [E] [E] [E] [E] [E] [E] [E] [E]  
 
 |-------------------|-------------------------|
 |-------------------|-------------------------|
 |-------------------|-------------------------|
 |-------------------|-------------------------|
 |-7-9-10-9-7-9-10-9-|-10-12-14-12-10-12-14-12-|
 |-------------------|-------------------------|

|
| TPTP TPTPTPTP TPTP TP TP TP TP TP TP TP TP
| E E E E E E E E E E E E E E E E
 
 |-------------------|-------------------------|
 |-------------------|-------------------------|
 |-------------------|-------------------------|
 |-------------------|-------------------------|
 |-7-9-10-9-7-9-10-9-|-----9-10--9-----9-10--9-|
 |-------------------|--7-----------7----------|

TPTP TPTPTPTP TPTP TP TP TP TP TP TP TP TP
[E] [E] [E] [E] [E] [E] [E] [E] [E] [E] [E] [E] [E] [E] [E] [E]  
 
 |-------------------|--------------------------|
 |-------------------|--------------------------|
 |-------------------|--------------------------|
 |-------------------|-------------10-----------|
 |-7-9-10-9-7-9-10-9-|-10-12-14-12----14-12-14--|
 |-------------------|--------------------------|

|
| TPTP TPTPTPTP TPTP TP TP TP TP TP TP TP TP
| E E E E E E E E E E E E E E E E
 
 |-------------------|--------------------------|
 |-------------------|--------------------------|
 |-------------------|--------------------------|
 |-------------------|--------------------------|
 |---9-10-9---9-10-9-|-----9-10--9-12-10--9-10--|
 |-8--------8--------|-10-----------------------|

TPTP TPTPTPTP TPTP TP TP TP TP TP TP TP TP
[E] [E] [E] [E] [E] [E] [E] [E] [E] [E] [E] [E] [E] [E] [E] [E]  
 
 |-------------------|-------------------------|
 |-------------------|-------------------------|
 |-------------------|-------------------------|
 |-------------------|-------------------------|
 |-7-9-10-9-7-9-10-9-|-10-12-14-12-10-12-14-12-|
 |-------------------|-------------------------|

|
| TPTP TPTPTPTP TPTP TP TP TP TP TP TP TP TP
| E E E E E E E E E E E E E E E E
 
 |-------------------|-------------------------|
 |-------------------|-------------------------|
 |-------------------|-------------------------|
 |-------------------|-------------------------|
 |-7-9-10-9-7-9-10-9-|-----9-10--9-----9-10--9-|
 |-------------------|--7-----------7----------|

TPTP TPTPTPTP TPTP ~~~~~~ ~~~~~~~~~~~~
E E E E E E E E Q Q E E Q H H W
 
 |-------------------|-------------------|-----------|------|
 |-------------------|-------------------|-----------|------|
 |-------------------|-------------------|-----------|------|
 |-------------------|--/7---------------|-----------|------|
 |-7-9-10-9-7-9-10-9-|------10--9-10-10--|-9----6----|-2----|
 |-------------------|-------------------|-----------|-0----|

|
| TPTP TPTPTPTP TPTP ~~~~~~ ~~~~~~~~~~~~
| E E E E E E E E Q Q E E Q H H W
 
 |-------------------|-------------------|-----------|------|
 |-------------------|-------------------|-----------|------|
 |-------------------|-------------------|-----------|------|
 |-------------------|-/10---9--7--9--9--|------9----|------|
 |---9-10-9---9-10-9-|--

Important: The song above is NOT stored on the Chordie server. The original song is hosted at www.xguitar.com. Chordie works as a search engine and provides on-the-fly formatting. Chordie does not index songs against artists'/composers' will. To remove this song please click here.

Text color:
Chord color:
Chord grids: 
Font size:    
Page size: 

B C5/G D5/A E E5 E5/B Eb5 F#5 G#5 G5
Rate #5 of 6 versions

Login - add to songbook

SHARE PAGE  




You need to log in to post comments