Guitar Tabs, Chords and Lyrics
Major upgrade!! After one year development the new version of Chordie is now online! Please give feedback.


Filthy Little Secret  Cradle of Filth

As recorded by Cradle Of Filth
(From the 2004 Album NYMPHETAMINE)
Words by Dani Filth
Music by Cradle of Filth
Arranged by Cradle of Filth
Transcribed by Gerhard Fischl
Gtr I (C F A# D# G C) - 'Untitled'
Gtr II (C F A# D# G C) - 'Untitled'
Intro
Q=182
[A5] [G5] [D5] [B5] [C5] [D5C5B5] [G5] 
[4/4] Gtrs I, II
Q E Q Q E Q E Q Q E Q E Q Q E Q E E E Q E
 
 ||---------------|--------------|--------------|----------------|
 ||o--------------|--------------|--------------|----------------|
 ||---------------|--------------|--------------|----------------|
 ||---------------|--------------|-7--7-7--7--4-|-5--5-7-5-4-----|
 ||o-7--7-7--7--7-|-7--7-7--7--5-|-5--5-5--5--2-|-3--3-5-3-2--5--|
 ||--5--5-5--5--5-|-5--5-5--5--3-|--------------|-------------3--|

[A5]Q E Q Q E Q E Q Q [G5]E Q E Q E E [B5]E [G5]Q E E [C5B5]E Q [G5]E
 
 |--------------|--------------|---------------|----------------||
 |--------------|--------------|---------------|---------------o||
 |--------------|--------------|---------------|----------------||
 |--------------|--------------|-5--5-5--5-5-4-|--------5-4-----||
 |-7--7-7--7--7-|-7--7-7--7--5-|-3--3-3--3-3-2-|-5--5-5-3-2--5-o||
 |-5--5-5--5--5-|-5--5-5--5--3-|---------------|-3--3-3------3--||

Bridge
N.C.
~
E E E E E E E E W
 
 |-----------------|------|
 |-----------------|------|
 |-----------------|------|
 |-7-5-3-5-3-2-3-2-|-3----|
 |-----------------|------|
 |-----------------|------|

Verse
$
[D5]Gtr I[B5]
Q E Q E E E Q E Q E E E Q E Q E E E Q E Q E E E
 
 ||-----------------|----------------|----------------|-----------------|
 ||o----------------|----------------|----------------|-----------------|
 ||-----------------|----------------|----------------|-----------------|
 ||--7--7-7---7-7-7-|-7--7--7--7-7-7-|-4--4-4---4-4-4-|-4--4-4---4-4-4--|
 ||o-5--5-5---5-5-5-|-5--5--5--5-5-5-|-2--2-2---2-2-2-|-2--2-2---2-2-2--|
 ||-----------------|----------------|----------------|-----------------|

|
| Gtr II
| TP TP TP TP TP TP TP TP TP TP TP
| Q Q Q Q Q H. Q Q Q Q Q Q Q Q
 
 ||-----5---6---5---|-3--5-----------|----6---5---3---|----8---6---5----|
 ||o----------------|----------------|----------------|-----------------|
 ||-----------------|----------------|----------------|-----------------|
 ||--7--------------|----------------|-4--------------|-4---------------|
 ||o-5--------------|----------------|-2--------------|-2---------------|
 ||-----------------|----------------|----------------|-----------------|

[D5]Q E Q E E E Q E Q E E E [F5] Q E Q E E E [E5]Q E E [F5] E [E5]Q [C5]E
 
 |----------------|----------------|---------------------|-----------------||
 |----------------|----------------|---------------------|----------------o||
 |----------------|----------------|-10--10-10--10-10-10-|-9--9-9-10-9--5--||
 |-7--7-7---7-7-7-|-7--7--7--7-7-7-|-10--10-10--10-10-10-|-9--9-9-10-9--5--||
 |-5--5-5---5-5-5-|-5--5--5--5-5-5-|--8---8--8---8--8--8-|-7--7-7--8-7--3-o||
 |----------------|----------------|---------------------|-----------------||

|
| TP TP TP TP TP
| Q Q Q Q Q H. Q E Q E E E Q E E E Q E
 
 |----5---6---5---|-3--5-----------|---------------------|-----------------||
 |----------------|----------------|---------------------|----------------o||
 |----------------|----------------|-10--10-10--10-10-10-|-9--9-9-10-9--5--||
 |-7--------------|----------------|-10--10-10--10-10-10-|-9--9-9-10-9--5--||
 |-5--------------|----------------|--8---8--8---8--8--8-|-7--7-7--8-7--3-o||
 |----------------|----------------|---------------------|-----------------||

[G#5]Gtrs I, II[Eb5] [D5]
W +H H W +W
 
 ||-----------|-------------|----------|--------|
 ||o----------|-------------|----------|--------|
 ||-----------|-------------|----------|--------|
 ||-----------|--------8----|-7--------|-(7)----|
 ||o-6--------|-(6)----6----|-5--------|-(5)----|
 ||--4--------|-(4)---------|----------|--------|

[G#5]W +H [A5]H [Eb5]W [D5]W
 
 |----------|-------------|----------|-------||
 |----------|-------------|----------|------o||
 |----------|-------------|----------|-------||
 |----------|--------2----|-8--------|-7-----||
 |-6--------|-(6)----0----|-6--------|-5----o||
 |-4--------|-(4)---------|----------|-------||

Pre-Chorus
N.C.
Gtr I
E E S S E E E S S E E E S S E E E S S E
 
 |----------------------|---------------------|
 |----------------------|---------------------|
 |----------------------|---------------------|
 |----------------------|---------------------|
 |----------------------|---------------------|
 |-2--2-2-2-2-2-2-2-2-2-|-2-2-2-2-2-2-2-2-2-2-|

|
| Gtr II
| TP TP TP TP TP
| H. E E H H
 
 |----------------------|---------------------|
 |----------------------|---------------------|
 |----------------------|---------------------|
 |-4--------------6---7-|-6---------3---------|
 |----------------------|---------------------|
 |----------------------|---------------------|

E E S S E E E S S E E E S S E E E S S E
 
 |----------------------|----------------------|
 |----------------------|----------------------|
 |----------------------|----------------------|
 |----------------------|----------------------|
 |----------------------|----------------------|
 |-2--2-2-2-2-2-2-2-2-2-|-2-2-2-2-2-2-2-2-2-2--|

|
| TP TP TP TP TP TP TP
| H. E E Q Q Q Q
 
 |----------------------|----------------------|
 |----------------------|----------------------|
 |----------------------|----------------------|
 |-4--------------6---7-|-6---9-----7---6------|
 |----------------------|----------------------|
 |----------------------|----------------------|

N.C.
E E S S E E E S S E E E S S E E E S S E
 
 |----------------------|---------------------|
 |----------------------|---------------------|
 |----------------------|---------------------|
 |----------------------|---------------------|
 |-5--5-5-5-5-5-5-5-5-5-|-5-5-5-5-5-5-5-5-5-5-|
 |----------------------|---------------------|

|
| TP TP TP TP TP
| H. E E H H
 
 |----------------------|---------------------|
 |----------------------|---------------------|
 |----------------------|---------------------|
 |-4--------------6---7-|-6---------3---------|
 |----------------------|---------------------|
 |----------------------|---------------------|

E E S S E E E S S E E E S S E E E S S E
 
 |----------------------|----------------------|
 |----------------------|----------------------|
 |----------------------|----------------------|
 |----------------------|----------------------|
 |----------------------|----------------------|
 |-2--2-2-2-2-2-2-2-2-2-|-2-2-2-2-2-2-2-2-2-2--|

|
| TP TP TP TP TP TP TP
| H. E E Q Q Q Q
 
 |----------------------|----------------------|
 |----------------------|----------------------|
 |----------------------|----------------------|
 |-4--------------6---7-|-6---9-----7---6------|
 |----------------------|----------------------|
 |----------------------|----------------------|

N.C.
Gtr I
TP TP TP TP TP TP TP TP TP TP
H. Q H H H. Q Q Q Q Q
 
 |-------------|-----------|-------------|-------------|
 |-------------|-----------|-------------|-------------|
 |-------------|-----------|---------6---|-4--7--6--4--|
 |-4-------7---|-6---------|-4-----------|-------------|
 |-------------|------8----|-------------|-------------|
 |-------------|-----------|-------------|-------------|

|
| Gtr II
| TP TPTP TP TP TP TPTP TP TP TP TP
| H. E E H H H. E E Q Q Q Q
 
 |-------------|-----------|-------------|-------------|
 |-------------|-----------|-------------|-------------|
 |-------------|-----------|-------------|-------------|
 |-4-------6-7-|-6----3----|-4-------6-7-|-6--9--7--6--|
 |-------------|-----------|-------------|-------------|
 |-------------|-----------|-------------|-------------|

N.C.
TP TP TP TP TP TP TP TP TP TP
H. Q H H H. Q Q Q Q Q
 
 |-------------|-----------|-------------|-------------|
 |-------------|-----------|-------------|-------------|
 |---------9---|-7----4----|---------6---|-4--7--6--4--|
 |-7-----------|-----------|-4-----------|-------------|
 |-------------|-----------|-------------|-------------|
 |-------------|-----------|-------------|-------------|

|
| TP TPTP TP TP TP TPTP TP TP TP TP
| H. E E H H H. E E Q Q Q Q
 
 |-------------|-----------|-------------|-------------|
 |-------------|-----------|-------------|-------------|
 |-------------|-----------|-------------|-------------|
 |-4-------6-7-|-6----3----|-4-------6-7-|-6--9--7--6--|
 |-------------|-----------|-------------|-------------|
 |-------------|-----------|-------------|-------------|

Chorus
F#5 N.C.
Gtrs I, II
 
 PM----------------------------|

E E S S E E E S S E E E S S E E E E E
 
 ||----------------------|-------------------|
 ||o---------------------|-------------------|
 ||----------------------|-------------------|
 ||----------------------|-------------------|
 ||o-4-4-4-4-4-4-4-4-4-4-|-4-4-4-4-4-5-4-2-4-|
 ||--2-2-2-2-2-2-2-2-2-2-|-2-2-2-2-2---------|

D.S.
F#5 N.C.
 
 PM----------------------------|

E E S S E E E S S E E E S S E E E E E
 
 |---------------------|----------------------||
 |---------------------|---------------------o||
 |---------------------|----------------------||
 |---------------------|----------------------||
 |-4-4-4-4-4-4-4-4-4-4-|-4-4-4-4-4-----------o||
 |-2-2-2-2-2-2-2-2-2-2-|-2-2-2-2-2-4-5-4-5----||

Interlude
[F#5]Q S S S S S S S S S S S S S S S S S S S S E E E E
 
 |----------------------------|-------------------------|
 |----------------------------|-------------------------|
 |----------------------------|-------------------------|
 |----------------------------|-------------------------|
 |-4--------------------------|-----------------5-4-2-0-|
 |-2--2-2-2-2-2-2-2-2-2-2-2-2-|-2-2-2-2-2-2-2-2---------|

[F#5]Q S S S S S S S S S S S S S S S S S S S S E E E E
 
 |----------------------------|----------------------------|
 |----------------------------|----------------------------|
 |----------------------------|----------------------------|
 |----------------------------|----------------------------|
 |-4--------------------------|----------------------------|
 |-2--2-2-2-2-2-2-2-2-2-2-2-2-|-2-2-2-2-2-2-2-2-4-7-5-4----|

[F#5]Q S S S S S S S S S S S S S S S S S S S S E E E E
 
 |----------------------------|-------------------------|
 |----------------------------|-------------------------|
 |----------------------------|-------------------------|
 |----------------------------|-------------------------|
 |-4--------------------------|-----------------5-4-2-0-|
 |-2--2-2-2-2-2-2-2-2-2-2-2-2-|-2-2-2-2-2-2-2-2---------|

[F#5]Q S S S S S S S S S S S S [A5]E Q [G#5]E Q [F#5]Q
 
 |----------------------------|----------------|
 |----------------------------|----------------|
 |----------------------------|----------------|
 |----------------------------|----------------|
 |-4--------------------------|-7-7--6-6--4----|
 |-2--2-2-2-2-2-2-2-2-2-2-2-2-|-5-5--4-4--2----|

Guitar Solo
[A5]Q E Q Q E Q E Q Q [G5]E [D5]Q E Q Q [B5]E [C5]Q E [D5C5B5]E E Q [G5]E
 
 |--------------|--------------|--------------|---------------|
 |--------------|--------------|--------------|---------------|
 |--------------|--------------|--------------|---------------|
 |--------------|--------------|-7--7-7--7--4-|-5--5-7-5-4----|
 |-7--7-7--7--7-|-7--7-7--7--5-|-5--5-5--5--2-|-3--3-5-3-2--5-|
 |-5--5-5--5--5-|-5--5-5--5--3-|--------------|-------------3-|

[F5]Gtr I[Eb5] [C5] [B5] [G5] [B5] [G5]
Q E Q Q E Q E Q Q E Q E Q E E E Q E E E Q E
 
 |--------------|--------------|----------------|------------------|
 |--------------|--------------|----------------|------------------|
 |--------------|--------------|----------------|------------------|
 |--------------|--------------|--5--5-5--5-5-4-|-----------5-4----|
 |-7--7-7--7--7-|-7--7-7--7--5-|--3--3-3--3-3-2-|---5---5-5-3-2--5-|
 |-5--5-5--5--5-|-5--5-5--5--3-|----------------|---3---3-3------3-|

|
| Gtr II
| Q E Q Q E Q E Q Q E W +W
 
 |--------------|--------------|-20-------------|-(20)-------------|
 |--------------|--------------|----------------|------------------|
 |--------------|--------------|----------------|------------------|
 |--------------|--------------|----------------|------------------|
 |-7--7-7--7--7-|-7--7-7--7--5-|----------------|------------------|
 |-5--5-5--5--5-|-5--5-5--5--3-|----------------|------------------|

[A5] Q E Q Q E
 
 |-------------------------------------------------|
 |-------------------------------------------------|
 |-------------------------------------------------|
 |-------------------------------------------------|
 |--7-----------7-----7-----------7-----------7----|
 |--5-----------5-----5-----------5-----------5----|

|
| S S S S S S S S S S S S S S S S
 
 |-15p12----12h15p12----12h15p12----12h15p12----12h|
 |-------15----------15----------15----------15----|
 |-------------------------------------------------|
 |-------------------------------------------------|
 |-------------------------------------------------|
 |-------------------------------------------------|

Q E Q Q [G5] E [D5] Q E Q Q [B5] E [C5] Q E [D5] E [C5B5]E Q [G5]E
 
 |------------------------------------|----------------------------|--------------------|
 |------------------------------------|----------------------------|--------------------|
 |------------------------------------|----------------------------|--------------------|
 |------------------------------------|--7------7--7-------7-----4-|--5--5--7--5-4------|
 |--7-----------7-----7-------7-----5-|--5------5--5-------5-----2-|--3--3--5--3-2----5-|
 |--5-----------5-----5-------5-----3-|----------------------------|------------------3-|

|
| S S S S S S S S Q E E Q E E Q E E Q E Q. Q
 
 |-15p12----12h15p12----12S17------17-|-20b22r====12-15b17r=====10-|-10--8-10------5\---|
 |-------15----------15---------17----|--------15------------13----|---------------5\---|
 |------------------------------------|----------------------------|--------------------|
 |------------------------------------|----------------------------|--------------------|
 |------------------------------------|----------------------------|--------------------|
 |------------------------------------|----------------------------|--------------------|

[A5]Q E Q Q E Q E Q Q [G5]E
 
 |---------------------------------|---------------------------------|
 |---------------------------------|---------------------------------|
 |---------------------------------|---------------------------------|
 |---------------------------------|---------------------------------|
 |-7-------7---7-------7-------7---|-7-------7---7-------7-------5---|
 |-5-------5---5-------5-------5---|-5-------5---5-------5-------3---|

|
| S S S S S S S S S S S S S S S S S S S S S S S S S S S S S S S S
 
 |---------------------------------|---------------------------------|
 |-5-4-5-4-5-4-5-4-5-4-5-4-5-4-5-4-|-5-4-5-4-5-4-5-4-5-4-5-4-5-4-5-4-|
 |---------------------------------|---------------------------------|
 |---------------------------------|---------------------------------|
 |---------------------------------|---------------------------------|
 |---------------------------------|---------------------------------|

[C5] Q E Q E E [B5]E [G5] Q E E [C5B5]E Q [G5]E
 
 |------------------|-------------------|
 |------------------|-------------------|
 |------------------|-------------------|
 |--5---5-5---5-5-4-|---------5-4-------|
 |--3---3-3---3-3-2-|--5--5-5-3-2--5----|
 |------------------|--3--3-3------3----|

|
| ~~~~~~~~~~~~~~~~~~~~~
| Q. Q. Q W
 
 |-\5-----7-----8---|-10----------------|
 |-\5-----7-----8---|-10----------------|
 |------------------|-------------------|
 |------------------|-------------------|
 |------------------|-------------------|
 |------------------|-------------------|

[A5] Q E Q Q E Q E Q Q [G5] E
 
 |---------------------|-------------------------|
 |---------------------|-------------------------|
 |---------------------|-------------------------|
 |---------------------|-------------------------|
 |--7---7-7----7-----7-|--7-----7--7-----7-----5-|
 |--5---5-5----5-----5-|--5-----5--5-----5-----3-|

|
| ~~~~~~~~~~~~~~~~~~~
| Q Q Q E E E E E E E E E E
 
 |-----10---12---10----|----10-------------------|
 |------------------13-|-13----12-13-10-13-12-10-|
 |---------------------|-------------------------|
 |---------------------|-------------------------|
 |-12------------------|-------------------------|
 |---------------------|-------------------------|

[D5] Q E Q Q [B5] E [C5] Q E [D5] E [C5] E [B5] Q [G5] E
 
 |-------------------------|-------------------------|
 |-------------------------|-------------------------|
 |-------------------------|-------------------------|
 |--7-----7--7-----7-----4-|--5-----5--7--5--4-------|
 |--5-----5--5-----5-----2-|--3-----3--5--3--2-----5-|
 |-------------------------|-----------------------3-|

|
| E E E E Q E E E E E E E E E E
 
 |-------------------------|-------------------10----|
 |-13-13-12-13-10\---10-13-|-13-13-12-10-12-13----13-|
 |-------------------------|-------------------------|
 |-------------------------|-------------------------|
 |-------------------------|-------------------------|
 |-------------------------|-------------------------|

[A5] Q E Q Q E Q E Q Q [G5] E
 
 |---------------------|---------------------------|
 |---------------------|---------------------------|
 |---------------------|---------------------------|
 |---------------------|---------------------------|
 |--7---7-7----7-----7-|---7------7--7-----7-----5-|
 |--5---5-5----5-----5-|---5------5--5-----5-----3-|

|
| Q Q Q E E +E E E E E E E E
 
 |-----10---12---10-13-|-(13)-13-10----10-10-------|
 |---------------------|------------13-------12-13-|
 |---------------------|---------------------------|
 |---------------------|---------------------------|
 |-12------------------|---------------------------|
 |---------------------|---------------------------|

[C5] Q E Q E E [B5] E [G5] Q E E [C5] E [B5] Q [G5] E
 
 |--------------------------|---------------------------|
 |--------------------------|---------------------------|
 |--------------------------|---------------------------|
 |--5-----5--5----5-5--4----|----------------5--4-------|
 |--3-----3--3----3-3--2----|---5------5--5--3--2-----5-|
 |--------------------------|---3------3--3-----------3-|

|
| ~~
| E E E E Q E E +E E E E E E E E
 
 |-------10-----------11b12r|=(11)-------10-13-12-------|
 |-13-10----10-13-----------|------13-12----------12-13-|
 |--------------------------|---------------------------|
 |--------------------------|---------------------------|
 |--------------------------|---------------------------|
 |--------------------------|---------------------------|

Interlude
E5 N.C.
~~~~~~~~
e e E e E e e E e e E e E e e E e e E e E e e E +E E E E E E E E 4x
 
 ||------3---2-----3-|-----3---3-----2-|-----3---2-----3-|-(3)-2-0-2-0-2-0-2---||
 ||o-----5---3-----5-|-----5---5-----3-|-----5---3-----5-|-(5)-3-1-3-1-3-1-3--o||
 ||--4-4---4---4-4---|-4-4---4---4-4---|-4-4---4---4-4---|---------------------||
 ||--2-2---2---2-2---|-2-2---2---2-2---|-2-2---2---2-2---|---------------------||
 ||o-----------------|-----------------|-----------------|--------------------o||
 ||------------------|-----------------|-----------------|---------------------||

|
| ~~~~~~~~~~ ~~~~~~~~
| E E E E E E E E E E E E E E E E Q Q Q E E +E E E E E E E E 4x
 
 ||--5---7---5---3-8-|---3-7---5---7---|-3---2---------3-|-(3)-2-0-2-0---0-----||
 ||o---5---5---5-----|-5-----5---5---3-|---------5---3---|-------------3---3--o||
 ||------------------|-----------------|-----------------|---------------------||
 ||------------------|-----------------|-----------------|---------------------||
 ||o-----------------|-----------------|-----------------|--------------------o||
 ||------------------|-----------------|-----------------|---------------------||

N.C.
H. E E H. E E H. E E Q Q Q Q
 
 |-------------|-------------|-------------|-------------|
 |-5-------5-3-|-5-------5-3-|-5-------5-3-|-5--3--1--0--|
 |-------------|-------------|-------------|-------------|
 |-------------|-------------|-------------|-------------|
 |-------------|-------------|-------------|-------------|
 |-------------|-------------|-------------|-------------|

|
| H. E E H. E E H. E E Q Q Q Q
 
 |-5-------7-5-|-7-------7-5-|-3-------5-3-|-5--7--5-----|
 |-------------|-------------|-------------|----------8--|
 |-------------|-------------|-------------|-------------|
 |-------------|-------------|-------------|-------------|
 |-------------|-------------|-------------|-------------|
 |-------------|-------------|-------------|-------------|

N.C.
H. E E H. E E H. E E Q Q Q Q
 
 |-------------|-------------|-------------|--------------|
 |-----------5-|-----------5-|-----------5-|-6---5--3--1--|
 |-2-------2---|-4-------4---|-5-------5---|--------------|
 |-------------|-------------|-------------|--------------|
 |-------------|-------------|-------------|--------------|
 |-------------|-------------|-------------|--------------|

|
| H. E E H. E E H. E E Q Q Q Q
 
 |-5-------7-5-|-7-------7-5-|-8-------8-7-|-8--10--8--7--|
 |-------------|-------------|-------------|--------------|
 |-------------|-------------|-------------|--------------|
 |-------------|-------------|-------------|--------------|
 |-------------|-------------|-------------|--------------|
 |-------------|-------------|-------------|--------------|

N.C.
~~~~~~~~~~ ~~ ~~~~~~~~~~~~~~
Q Q Q Q +Q Q Q Q Q H E E Q Q Q Q
 
 |-----8-----7---|-(7)-----8------|-7---10----10-10-|-10b12--8--7--5--|
 |-5------5------|------5-----5---|-----------------|-----------------|
 |---------------|----------------|-----------------|-----------------|
 |---------------|----------------|-----------------|-----------------|
 |---------------|----------------|-----------------|-----------------|
 |---------------|----------------|-----------------|-----------------|

|
| H. E E H. E E H. E E Q Q Q Q
 
 |-5---------7-5-|--7---------7-5-|-3----------5--3-|--5-----7--5-----|
 |---------------|----------------|-----------------|--------------8--|
 |---------------|----------------|-----------------|-----------------|
 |---------------|----------------|-----------------|-----------------|
 |---------------|----------------|-----------------|-----------------|
 |---------------|----------------|-----------------|-----------------|

N.C.
~~~~~~~~~~ ~~ ~
Q Q Q Q +Q Q Q Q Q Q Q Q Q Q Q Q
 
 |-----8-----7---|-(7)-----8--1s==|=3------8--3s==|=5-----8--8s==|
 |-5------5------|------5---------|-----5---------|----5---------|
 |---------------|----------------|---------------|--------------|
 |---------------|----------------|---------------|--------------|
 |---------------|----------------|---------------|--------------|
 |---------------|----------------|---------------|--------------|

|
| H. E E H. E E H. E E Q Q Q Q
 
 |-5---------7-5-|--7---------7-5-|-8---------8-7-|-8--7-----5---|
 |---------------|----------------|---------------|-------8------|
 |---------------|----------------|---------------|--------------|
 |---------------|----------------|---------------|--------------|
 |---------------|----------------|---------------|--------------|
 |---------------|----------------|---------------|--------------|

N.C.
~~~~~~~~~~~~~~~~
W +W
 
 |--7--------|--(7)----|
 |-----------|---------|
 |-----------|---------|
 |-----------|---------|
 |-----------|---------|
 |-----------|---------|

|
| ~~~~~~~~~~~~~~~~
| W +W
 
 |-12--------|-(12)----|
 |-----------|---------|
 |-----------|---------|
 |-----------|---------|
 |-----------|---------|
 |-----------|---------|

Verse
[G#5]Gtrs I, II[Eb5] [D5]
W +H H W +W
 
 ||-----------|-------------|----------|--------|
 ||o----------|-------------|----------|--------|
 ||-----------|-------------|----------|--------|
 ||-----------|--------8----|-7--------|-(7)----|
 ||o-6--------|-(6)----6----|-5--------|-(5)----|
 ||--4--------|-(4)---------|----------|--------|

[G#5]W +H [A5]H [Eb5]W [D5]W
 
 |----------|-------------|----------|-------||
 |----------|-------------|----------|------o||
 |----------|-------------|----------|-------||
 |----------|--------2----|-8--------|-7-----||
 |-6--------|-(6)----0----|-6--------|-5----o||
 |-4--------|-(4)---------|----------|-------||

Pre-Chorus
N.C.
Gtr I
E E S S E E E S S E E E S S E E E S S E
 
 |----------------------|---------------------|
 |----------------------|---------------------|
 |----------------------|---------------------|
 |----------------------|---------------------|
 |----------------------|---------------------|
 |-2--2-2-2-2-2-2-2-2-2-|-2-2-2-2-2-2-2-2-2-2-|

|
| Gtr II
| TP TP TP TP TP
| H. E E H H
 
 |----------------------|---------------------|
 |----------------------|---------------------|
 |----------------------|---------------------|
 |-4--------------6---7-|-6---------3---------|
 |----------------------|---------------------|
 |----------------------|---------------------|

E E S S E E E S S E E E S S E E E S S E
 
 |----------------------|----------------------|
 |----------------------|----------------------|
 |----------------------|----------------------|
 |----------------------|----------------------|
 |----------------------|----------------------|
 |-2--2-2-2-2-2-2-2-2-2-|-2-2-2-2-2-2-2-2-2-2--|

|
| TP TP TP TP TP TP TP
| H. E E Q Q Q Q
 
 |----------------------|----------------------|
 |----------------------|----------------------|
 |----------------------|----------------------|
 |-4--------------6---7-|-6---9-----7---6------|
 |----------------------|----------------------|
 |----------------------|----------------------|

N.C.
E E S S E E E S S E E E S S E E E S S E
 
 |----------------------|---------------------|
 |----------------------|---------------------|
 |----------------------|---------------------|
 |----------------------|---------------------|
 |-5--5-5-5-5-5-5-5-5-5-|-5-5-5-5-5-5-5-5-5-5-|
 |----------------------|---------------------|

|
| TP TP TP TP TP
| H. E E H H
 
 |----------------------|---------------------|
 |----------------------|---------------------|
 |----------------------|---------------------|
 |-4--------------6---7-|-6---------3---------|
 |----------------------|---------------------|
 |----------------------|---------------------|

E E S S E E E S S E E E S S E E E S S E
 
 |----------------------|----------------------|
 |----------------------|----------------------|
 |----------------------|----------------------|
 |----------------------|----------------------|
 |----------------------|----------------------|
 |-2--2-2-2-2-2-2-2-2-2-|-2-2-2-2-2-2-2-2-2-2--|

|
| TP TP TP TP TP TP TP
| H. E E Q Q Q Q
 
 |----------------------|----------------------|
 |----------------------|----------------------|
 |----------------------|----------------------|
 |-4--------------6---7-|-6---9-----7---6------|
 |----------------------|----------------------|
 |----------------------|----------------------|

N.C.
Gtr I
TP TP TP TP TP TP TP TP TP TP
H. Q H H H. Q Q Q Q Q
 
 |-------------|-----------|-------------|-------------|
 |-------------|-----------|-------------|-------------|
 |-------------|-----------|---------6---|-4--7--6--4--|
 |-4-------7---|-6---------|-4-----------|-------------|
 |-------------|------8----|-------------|-------------|
 |-------------|-----------|-------------|-------------|

|
| Gtr II
| TP TPTP TP TP TP TPTP TP TP TP TP
| H. E E H H H. E E Q Q Q Q
 
 |-------------|-----------|-------------|-------------|
 |-------------|-----------|-------------|-------------|
 |-------------|-----------|-------------|-------------|
 |-4-------6-7-|-6----3----|-4-------6-7-|-6--9--7--6--|
 |-------------|-----------|-------------|-------------|
 |-------------|-----------|-------------|-------------|

N.C.
TP TP TP TP TP TP TP TP TP TP
H. Q H H H. Q Q Q Q Q
 
 |-------------|-----------|-------------|-------------|
 |-------------|-----------|-------------|-------------|
 |---------9---|-7----4----|---------6---|-4--7--6--4--|
 |-7-----------|-----------|-4-----------|-------------|
 |-------------|-----------|-------------|-------------|
 |-------------|-----------|-------------|-------------|

|
| TP TPTP TP TP TP TPTP TP TP TP TP
| H. E E H H H. E E Q Q Q Q
 
 |-------------|-----------|-------------|-------------|
 |-------------|-----------|-------------|-------------|
 |-------------|-----------|-------------|-------------|
 |-4-------6-7-|-6----3----|-4-------6-7-|-6--9--7--6--|
 |-------------|-----------|-------------|-------------|
 |-------------|-----------|-------------|-------------|

Chorus
F#5 N.C.
Gtrs I, II
 
 PM----------------------------|

E E S S E E E S S E E E S S E E E E E
 
 ||----------------------|-------------------|
 ||o---------------------|-------------------|
 ||----------------------|-------------------|
 ||----------------------|-------------------|
 ||o-4-4-4-4-4-4-4-4-4-4-|-4-4-4-4-4-5-4-2-4-|
 ||--2-2-2-2-2-2-2-2-2-2-|-2-2-2-2-2---------|

F#5 N.C.
 
 PM----------------------------|

E E S S E E E S S E E E S S E E E E E
 
 |---------------------|----------------------||
 |---------------------|---------------------o||
 |---------------------|----------------------||
 |---------------------|----------------------||
 |-4-4-4-4-4-4-4-4-4-4-|-4-4-4-4-4-----------o||
 |-2-2-2-2-2-2-2-2-2-2-|-2-2-2-2-2-4-5-4-5----||

Interlude
[F#5]W +H E E E E [F#5]W +H E E E E
 
 |----------|----------------|----------|----------------|
 |----------|----------------|----------|----------------|
 |----------|----------------|----------|----------------|
 |----------|----------------|----------|----------------|
 |-4--------|-(4)----5-4-2-0-|-4--------|-(4)------------|
 |-2--------|-(2)------------|-2--------|-(2)----4-7-5-4-|

[F#5]W +H E E E E [F#5]W [A5]E Q [G#5]E E E [F#5]Q
 
 |----------|----------------|----------|---------------|
 |----------|----------------|----------|---------------|
 |----------|----------------|----------|---------------|
 |----------|----------------|----------|---------------|
 |-4--------|-(4)----5-4-2-0-|-4--------|-7-7--6-6-6-4--|
 |-2--------|-(2)------------|-2--------|-5-5--4-4-4-2--|

Outro
[A5]H. [B5A5]E E [B5]H. E [A5]E [C5] H. E [B5]E [C5] Q [B5]Q [G5]Q [B5]Q
 
 |-------------|-------------|---------------|--------------|
 |-------------|-------------|---------------|--------------|
 |-------------|-------------|---------------|--------------|
 |-------------|-------------|---------------|--------------|
 |-7-------9-7-|-9-------9-7-|-10-------10-9-|-10--9--5--9--|
 |-5-------7-5-|-7-------7-5-|--8--------8-7-|--8--7--3--7--|

[A5]H. [B5A5]E E [B5]H. E [A5]E [C5] H. E [B5]E [D5] H [E5] E [D5] E [E5] E [D5] E
 
 |-------------|-------------|---------------|-------------------|
 |-------------|-------------|---------------|-------------------|
 |-------------|-------------|---------------|-------------------|
 |-------------|-------------|---------------|-------------------|
 |-7-------9-7-|-9-------9-7-|-10-------10-9-|-12----14S12S14S12-|
 |-5-------7-5-|-7-------7-5-|--8--------8-7-|-10----12S10S12S10-|

N.C.
Gtr I
~~~~~~~~~~ ~~ ~~~~~~~~~~~~~~
Q Q Q Q +Q Q Q Q Q H E E Q Q Q Q
 
 |-----8-----7---|-(7)-----8------|-7---10----10-10-|-10b12--8--7--5--|
 |-5------5------|------5-----5---|-----------------|-----------------|
 |---------------|----------------|-----------------|-----------------|
 |---------------|----------------|-----------------|-----------------|
 |---------------|----------------|-----------------|-----------------|
 |---------------|----------------|-----------------|-----------------|

|
| Gtr II
| H. E E H. E E H. E E Q Q Q Q
 
 |-5---------7-5-|--7---------7-5-|-3----------5--3-|--5-----7--5-----|
 |---------------|----------------|-----------------|--------------8--|
 |---------------|----------------|-----------------|-----------------|
 |---------------|----------------|-----------------|-----------------|
 |---------------|----------------|-----------------|-----------------|
 |---------------|----------------|-----------------|-----------------|

H.=H
N.C.
~~~~~~~~~~ ~~ ~
Q Q Q Q +Q Q Q Q Q Q Q Q Q Q Q Q
 
 |-----8-----7---|-(7)-----8--1s==|=3------8--3s==|=5-----8--8--|
 |-5------5------|------5---------|-----5---------|----5--------|
 |---------------|----------------|---------------|-------------|
 |---------------|----------------|---------------|-------------|
 |---------------|----------------|---------------|-------------|
 |---------------|----------------|---------------|-------------|

|
| H. E E H. E E H. E E Q Q Q Q
 
 |-5---------7-5-|--7---------7-5-|-8---------8-7-|-8--7-----5--|
 |---------------|----------------|---------------|-------8-----|
 |---------------|----------------|---------------|-------------|
 |---------------|----------------|---------------|-------------|
 |---------------|----------------|---------------|-------------|
 |---------------|----------------|---------------|-------------|

N.C.
~~~~~~~~~~~~~~~~
W +W
 
 |--7--------|--(7)----*|
 |-----------|---------*|
 |-----------|---------*|
 |-----------|---------*|
 |-----------|---------*|
 |-----------|---------*|

|
| ~~~~~~~~~~~~~~~~
| W +W
 
 |-12--------|-(12)----*|
 |-----------|---------*|
 |-----------|---------*|
 |-----------|---------*|
 |-----------|---------*|
 |-----------|---------*|

Duration Legend
 
 ---------------
 W - whole; H - half; Q - quarter; E - 8th; S - 16th; T - 32nd; X - 64th; a - acciaccatura

+ - note tied to previous; . - note dotted; .. - note double dotted
Uncapitalized letters represent notes that are staccato (1/2 duration)
Irregular groupings are notated above the duration line
Duration letters will always appear directly above the note/fret number it represents the
duration for. Duration letters with no fret number below them represent rests. Multi-
bar rests are notated in the form Wxn, where n is the number of bars to rest for. Low
melody durations appear below the staff
Tablature Legend
 
 ----------------

h - hammer-on
p - pull-off
b - bend
pb - pre-bend
r - bend release (if no number after the r, then release immediately)
/\ - slide into or out of (from/to "nowhere")
s - legato slide
S - shift slide
<n> - natural harmonic
(n) - artificial harmonic
n(n) - tapped harmonic
~ - vibrato
tr - trill
T - tap
TP - trem. picking
PM - palm muting
\n/ - tremolo bar dip; n = amount to dip
\n - tremolo bar down
n/ - tremolo bar up
/n\ - tremolo bar inverted dip
= - hold bend; also acts as connecting device for hammers/pulls
<> - volume swell (louder/softer)
x - on rhythm slash represents muted slash
o - on rhythm slash represents single note slash
Misc Legend
 
 -----------

| - bar
|| - double bar
||o - repeat start
o|| - repeat end
*| - double bar (ending)
: - bar (freetime)
$ - Segno
& - Coda
Tempo markers - <E/E./Q/Q./H/H.> = BPM(8/16=s8/s16), where s8 = swing 8ths, s16 = swing 16ths
***************************************************************************************
* Generated using Power Tab Editor by Brad Larsen - http://powertab.guitarnetwork.org *
***************************************************************************************

Important: The song above is NOT stored on the Chordie server. The original song is hosted at www.xguitar.com. Chordie works as a search engine and provides on-the-fly formatting. Chordie does not index songs against artists'/composers' will. To remove this song please click here.

Text color:
Chord color:
Chord grids: 
Font size:    
Page size: 

A5 B5 C5 D5 E5 Eb5 F#5 F5 G#5 G5
Rate #2 of 3 versions

Login - add to songbook

SHARE PAGE  




You need to log in to post comments