Guitar Tabs, Chords and Lyrics
Server problems seems to be fixed. Chordie has been experiencing problems with songs disappearing. These issues now seems to be fixed, but still verifying the fix. If you find anything strange, please email admin@chordie.com.


The Principle of Evil Made Flesh   Cradle of Filth

 
 |---------------------|---------------------|
 |---------------------|---------------------|
 |---------------------|---------------------|
 |-3s4s3-3s4s3-7-6-5-6-|-3s4s3-3s4s3-7-6-5-6-|
 |-3s4s3-3s4s3-7-6-5-6-|-3s4s3-3s4s3-7-6-5-6-|
 |-1s2s1-1s2s1-5-4-3-4-|-1s2s1-1s2s1-5-4-3-4-|

 


 


 Riff 1b:


 

 
 |---------------------|---------------------|
 |---------------------|---------------------|
 |---------------------|---------------------|
 |-3-------------------|-3-----------7-6-5-6-|
 |-3-------------------|-3-----------7-6-5-6-|
 |-1-------------------|-1-----------5-4-3-4-|

 


 


 Riff 2a: "From the primeval mass..." Riff 2b: Optional harmony


 

 
 |------------------------| |-------------------------|
 |------------------------| |-------------------------|
 |------------------------| |-8----9----8----9--12-11-|
 |------------------------| |-------------------------|
 |-6----7----6----7--10-9-| |-------------------------|
 |------------------------| |-------------------------|

 


 


 Riff 3a: "The abolition of..." Riff 3b:


 

 
 |---------| |----------|
 |---------| |----------|
 |---------| |----------|
 |---------| |-9-10-9-8-|
 |-7-8-7-6-| |-7-8--7-6-|
 |---------| |-7-8--7-6-|

 


 


 Riff 4: "Shattered are the icons of the worthless..."


 

 
 |--------------------------------------|
 |--------------------------------------|
 |--------------------------------------|
 |-22222222--------22222222-------------|
 |-22222222--------22222222-2h3p2-0-----|
 |-00000000-2h3-1--00000000---------3-2-|

 


 


 Riff 5: "World without end..."


 

 
 |-----|-----|-----|-----|
 |-----|-----|-----|-----|
 |-----|-----|-----|-----|
 |-7---|-5---|-7---|-9---|
 |-5---|-3---|-5---|-7---|
 |-5---|-3---|-5---|-7---|

 


 hold hold hold hold


 


 Riff 6a:


 

 
 |-----|-----|-----|-----|
 |-----|-----|-----|-----|
 |-----|-----|-----|-----|
 |-7---|-8---|-7---|-6---|
 |-5---|-6---|-5---|-4---|
 |-5---|-6---|-5---|-4---|

 


 damp damp damp damp


 


 

 
 |-------------------------------------------------------|
 |-------------------------------------------------------|
 |-------------------------------------------------------|
 |-------------------------------------------------------|
 |-------------------------------------------------------|
 |-------------------------------------------------------|

 


 


 Riff 8: "To the name of Baphomet..."


 

 
 |---------------------------------|
 |---------------------------------| You'll have to get the feel of this
 |---------------------------------| riff yourself. Listen to the recording
 |-5s7--7-x-7-7-7s5--8s7-7-x-7-6-5-| for appropriate damping, etc.
 |-5s7--7-x-7-7-7s5--8s7-7-x-7-6-5-|
 |-3s5--5-x-5-5-5s4--6s5-5-x-5-4-3-|

 


 


 ==============================================================================


 


 Band: Cradle Of FIlth


 Album: The Principle of Evil Made Flesh


 Song: The Principle of Evil Made Flesh


 


 Visit -=> www.metallouco.cjb.net


 Transcribed by: Kai O'Brien kaiobrien@geocities.com


 


 


 Tune down one whole step.


 


 Intro


 


 x 4


 


 

 
 -------------------
 -------------------
 -------------------
 -3-3/4\3---7-6-5-6-
 -3-3/4\3---7-6-5-6-
 -1-1/2\1---5-4-3-4-

 


 


 Riff 1


 


 

 
 |---------------------------------|
 |---------------------------------|
 |---------------------------------|
 |-3---3-3-3-3-3-3-7---6---5---6---|
 |-3---3-3-3-3-3-3-7---6---5---6---|
 |-1---1-1-1-1-1-1-5---4---3---4---|

 


 | 1 e + a 2 e + a 3 e + a 4 e + a |


 | |


 

 
 |---------------------------------|
 |---------------------------------|
 |-----------------9---8---7---8---|
 |---------------------------------|
 |---------------------------------|
 |---------------------------------|

 


 1 e + a 2 e + a 3 e + a 4 e + a


 


 Riff 2


 


 x 2


 


 

 
 ------------------------
 ------------------------
 -8---9---8---9---12--11-
 -8---9---8---9---12--11-
 -6---7---6---7---10--9--
 ------------------------

 


 


 ** Riff 1 **


 


 Riff 3


 


 

 
 |-----------------------------------------------------------------|
 |-----------------------------------------------------------------|
 |-----------------------------------------------------------------|
 |-----------------------------------------------------------------|
 |-7-8-7-6-7-8-7-6-7-8-7-6-7-8-7-6-7-8-7-6-7-8-7-6-7-8-7-6-7-8-7-6-|
 |-----------------------------------------------------------------|

 


 | 1 + 2 + 3 + 4 + 1 + 2 + 3 + 4 + 1 + 2 + 3 + 4 + 1 + 2 + 3 + 4 + |


 | |


 

 
 |-----------------------------------------------------------------|
 |-----------------------------------------------------------------|
 |-----------------------------------------------------------------|
 |-----------------------------------------------------------------|
 |-----------------7-8-7-6-7-8-7-6-7-8-7-6-7-8-7-6-7-8-7-6-7-8-7-6-|
 |-----------------------------------------------------------------|

 


 [1] [+] [2] [+] [3] [+] [4] [+] [1] [+] [2] [+] [3] [+] [4] [+] [1] [+] [2] [+] [3] [+] [4] [+] [1] [+] [2] [+] [3] [+] [4] [+] 


 Riff 4


 


 x 4


 


 

 
 ----------------------------
 ----------------------------
 ----------------------------
 -2---3-5-3---2---9-10-9-7-3-
 -2---3-5-3---2---9-10-9-7-3-
 -0---1-3-1---0---7-8--7-5-1-

 


 


 Riff 5


 


 

 
 |-----------------------------------|
 |-----------------------------------|
 |-------------------10--------------|
 |-7-----------------10--------------|
 |-7-----------------8---------------|
 |-5---------------------------------|

 


 | |


 

 
 |-----------------------------------|
 |-----6-5---5-----------6-5---5-----|
 |---------7---7-5-----------7---7-5-|
 |-----------------------------------|
 |-----------------------------------|
 |-----------------------------------|
 |-----------------------------------|
 |-----------------------------------|
 |-7-----------------9---------------|
 |-7-----------------9---------------|
 |-5-----------------7---------------|
 |-----------------------------------|

 


 | |


 

 
 |-----------------------------------|
 |-----------------------6-5---5-----|
 |---------------------------7---7-5-|
 |-----------------------------------|
 |-----------------------------------|
 |-----------------------------------|

 


 


 Solo /w Riff 5 chords


 


 

 
 -------------------------------5---7---8-7-8-7-8---10---8-7-8-7-8-7-
 -----------5---6-5-6-5-6---8----------------------------------------
 -5-4---7------------------------------------------------------------
 --------------------------------------------------------------------
 --------------------------------------------------------------------
 --------------------------------------------------------------------
 -10---12---13-12-------------------------------------------------------------
 -----------------12b13-12b13r12-10-9-----------------------------------------
 ---------------------------------------9-10---10-9-10-9-10----------------9\-
 -----------------------------------------------------------10-9-10-9-10------
 -----------------------------------------------------------------------------
 -----------------------------------------------------------------------------

 


 


 Riff 6


 


 

 
 ---------------
 ---------------
 ---------------
 -7---8---3---2-
 -7---8---3---2-
 -5---6---1---0-

 


 


 Riff 7


 


 

 
 -----------------------------------------------------------
 -----------------------------------------------------------
 -----------------------------------------------------------
 -----------------------------------------------------------
 -7h8-7p5---7h8-7p5---7h8-7p5---7h8-7p5---7h8-7p5---7h8-7p5-
 -----------------------------------------------------------
 -------------|---------
 -------------|---------
 -------------|---------
 -11-10-13-12-|-11-10-8-
 -11-10-13-12-|-11-10-8-
 -9--8--11-10-|-9--8--6-


Important: The song above is NOT stored on the Chordie server. The original song is hosted at www.xguitar.com. Chordie works as a search engine and provides on-the-fly formatting. Chordie does not index songs against artists'/composers' will. To remove this song please click here.

This song is displayed as text-only. Transposing and tuning is only available for chordpro-songs.
Rate #2 of 3 versions

Login - add to songbook

SHARE PAGE  




You need to log in to post comments