Guitar Tabs, Chords and Lyrics
Major upgrade!! After one year development the new version of Chordie is now online! Please give feedback.


To Eve the Art of Witchcraft   Cradle of Filth

 
 -------------------------------------
 -------------------------------------
 --10---13---9---13---10---13-----
 -------------------------------------
 ---8---11---7---11----8----11-----
 -------------------------------------

 


 


 Figure B: Savage guitar intro riff


 

 
 ----------------------------------------
 ----------------------------------------
 ----------------------------------------
 --2-------2---------2---------2--------
 --2-------2---------2---------2--------
 -----0*-------0*-------0*--------0*---

 


 


 Figure C: Yet another savage guitar intro riff. Play this 8 times.


 

 
 ---------------------------
 ---------------------------
 ---------------------------
 --3...---6...---2...---6...---
 --3...---6...---2...---6...---
 --1...---4...---0...---4...---

 


 


 Figure D: Figure B * 4


 


 Figure E: Play this 4 times.


 

 
 ---------------
 ---------------
 ---------------
 --2222222----
 --2222222----
 --0000000----

 


 


 Figure F: Keyboard part in the middle. Play this twice.


 

 
 ---------------------------------------------------------
 ---------------------------------------------------------
 --7------------5-------------------------5--------------
 -----7--6--7------7--6--7-----7--6--7-----7--6--7----
 -----------------------------8---------------------------
 ---------------------------------------------------------
 ----------------------------------------------------------
 ----------------------------------------------------------
 --7------------5-----------------------------------------
 -----7--6--7------7--6--7--6--7--6--7--7--7--6--7----
 ----------------------------------------------------------
 ----------------------------------------------------------

 


 


 Figure G: Play this with Figure F, twice.


 

 
 -------------------------
 -------------------------
 --7----------------------
 --7---3---5---6---7-----
 --5---3---5---6---7-----
 ------1---3---4---5-----

 


 


 Figure H: Then play this.


 

 
 ------
 ------
 ------

 


 [--2---]  


 [--2---]--0---


 


 Figure I: Play this 4 times.


 

 
 ----------------------------------------------------------
 ----------------------------------------------------------
 ----------------------------------------------------------
 -----------0h2--0h2--0----------------------------------
 --2--0h2-----------------2--2h3p2p0-------------------
 --0-------------------------------------3*2*1*0*0*----

 


 


 Figure J: Play this twice.


 

 
 ----------------------------------------------------------------------
 ----------------------------------------------------------------------
 ----------------------------------------------------------------------
 ----------------------------------------------------------------------
 --2--2h3p2p0---------------------3--2h3p2p0----------------------
 --0--------------3*2*1*0*0*-----1--------------3*2*1*0*0*------

 


 


 Figure K: Play this twice.


 

 
 --------------------------------------------------------------
 --------------------------------------------------------------
 --------------------------------------------------------------
 --2-----------------------------------------------------------
 ------------2--------2-----------2h3p2p0--------------------
 ------0*---0---0*---0---0*0*---------------3*2*1*0*0*---
 --------------------------------------------------------------
 --------------------------------------------------------------
 --------------------------------------------------------------
 --3-----------------------------------------------------------
 ------------3---------3-----------2h3p2p0------------------
 ------1*---1---1*----1---1*1*--------------3*2*1*0*0*---

 


 


 Figure L: Then play this.


 

 
 ------
 ------
 ------

 


 [--3---]  


 [--3---]  


 [--1---]  


 Figure M: Play Figure A through Figure E. Then play Figure H.


 


 Figure N: Another keyboard part... I wish I knew how to play that last


 


 super high a...


 

 
 --------------0-----0----
 --------------------------
 --------------------------
 -------2-----2-----2-----
 --------------------------
 --0---0-----0-----0------

 


 


 Figure O:


 

 
 ---------------------------
 ---------------------------
 ---------------------------
 ---------------------------
 ---------2-----------------
 --0--0------0--3*2*1-----

 


 


 Figure P:


 

 
 ------------------
 ------------------
 ------------------
 ------------------
 ------------------
 --0...---3*2*1----

 


 


 Figure Q:


 

 
 ---------------------------------------------------
 ---------------------------------------------------
 ---------------------------------------------------
 --2--2h3--0--2------0--------0h2-----0--2--3---
 --0---------------3-------5---------3-------------
 ---------------------------3-----------------------

 


 


 O.K. After Figure N, this is what happens:


 Figure O, 3 times


 Figure H


 Figure P, 4 times


 Figure Q


 Figure P, twice


 Figure Q


 Figure P, twice


 Figure Q


 Figure O, 4 times


 


 Figure R:


 

 
 ----------------------------------------------
 ----------------------------------------------
 ----------------------------------------------
 ---------------2---3---5---6---5---3---2----
 ---------------2---3---5---6---5---3---2----
 --0*0*0*...---0---1---3---4---3---1---0----

 


 


 Figure S: Finally, the "official", last key part... Play it 3 times.


 

 
 ---------------------------------------------
 ---------------------------------------------
 --16---14---12---14----9---7---5---7-----
 ---------------------------------------------
 --14---12---10---12----7---5---3---5-----
 ---------------------------------------------

 


 


 Figure T: Play the whole thing twice.


 

 
 ------------------------------------------------------
 ------------------------------------------------------
 ------------------------------------------------------
 --9---------9----------9-------9---------7-----------
 --7---------7----------7-------7---------5-----------
 -----0*0*------0*0*------0*-----0*0*--------------
 -------------------------------------------------------
 -------------------------------------------------------
 -------------------------------------------------------
 --9---------9---------9---7---5---4------------------
 --7---------7---------7---5---3---2------------------
 -----0*0*-----0*0*----------------------------------

 


 


 This one needs to be played twice.


 

 
 -------------------------------------------------------
 -------------------------------------------------------
 -------------------------------------------------------
 --5---------5---------5------5---------7-------------
 --3---------3---------3------3---------5-------------
 -----0*0*-----0*0*-----0*-----0*0*----------------


Important: The song above is NOT stored on the Chordie server. The original song is hosted at www.xguitar.com. Chordie works as a search engine and provides on-the-fly formatting. Chordie does not index songs against artists'/composers' will. To remove this song please click here.

This song is displayed as text-only. Transposing and tuning is only available for chordpro-songs.
Rate #1 of 1 versions

Login - add to songbook

SHARE PAGE  




You need to log in to post comments