Guitar Tabs, Chords and Lyrics
Major upgrade!! After one year development the new version of Chordie is now online! Please give feedback.


I Feel Free  Cream

This tab is brought to you by...
-McLean House-
 
 -------------------------------------------------------------------------------------

ARTIST: Cream
SONG: ‘I Feel Free’
(Hah, I wonder what Clapton was smoking while he wrote this one...)
*Intro: (No guitar in the intro, just a bunch of high guys humming...*
In all, it goes around nine times...
| Bum,bum,bum,bum,bum,bum |(E,E,E,D,E,E) (through whole intro)
|free’ ‘I feel| (B,D,E) (starts on the 2nd time around)
| |
|Mmmmm,mmm,mmm,mmm,mmmm,mmm,mmmm |(D,E,D,Db,B,A,B) (starts on the 4th time around)
| |
(On the 9th time, replace the 3rd vocal part with A,B,Ab,A,B...)
*First Verse
(Finally!! I hear a guitar...not very loudly though...)
[B] [E] [D] [A] [E]  
 
 E--------|-----------------------------------|-----------------|
 B--------|---Feel----when-I-dance-with-you---|---I-feel-free---|
 G--4--7--|-We-wave-like-the-sea--------------|---I-feel-free---|
 D--4--7--|-You-you’re-all-I-want-to-know-----|---I-feel-free---|
 A--2--5--|-----------------------------------|-----------------|
 E--------|-----------------------------------|-----------------|

(Strum all in open chords)
*Guitar Solo
Yeah something somewhat challenging! (not really though...it’s pretty simple)
(Key: ^hammer on/pull off^ <bend to surrounded note> )
 
 E-------------------------------|-------------------------|-------12----12--
 B-----------------15<17>15------|---14--14<15>14----------|---15-----15-----
 G---14--14^12^14------------13--|-----------------14--13--|-----------------
 D-------------------------------|-------------------------|-----------------
 A-------------------------------|-------------------------|-----------------
 E-------------------------------|-------------------------|-----------------
 15<17>15------|-------------------------------|-----------------17<19>-17<19>17--
 ----------14--|-------------------------------|---15-17-17--15-------------------
 --------------|---14---<15>14-12----12-14-----|----------------------------------
 --------------|------------------14-------14--|----------------------------------
 --------------|-------------------------------|----------------------------------
 --------------|-------------------------------|----------------------------------
 -----------------15--17--15<17>---|
 17--15--17---17-------------------|
 ----------------------------------|
 ----------------------------------|
 ----------------------------------|
 ----------------------------------|

NOTE: You have to have listened to this solo before getting the correct phrasing...
Good Job!

Important: The song above is NOT stored on the Chordie server. The original song is hosted at www.xguitar.com. Chordie works as a search engine and provides on-the-fly formatting. Chordie does not index songs against artists'/composers' will. To remove this song please click here.

Text color:
Chord color:
Chord grids: 
Font size:    
Page size: 

A B D E
Rate #3 of 5 versions

Jango Player

Login - add to songbook

SHARE PAGE  




You need to log in to post comments