Guitar Tabs, Chords and Lyrics
Major upgrade!! After one year development the new version of Chordie is now online! Please give feedback.


Born on the Bayou  Creedence Clearwater Revival

Subject: Re: REQ: "Born on the Bayou" by CCR
Yow! Brings back memories of my bar band days, howling my balls off trying
to sing that one just like John Fogerty...
As I recall, the intro riff is just arpegggios based on this fingering
for an E7 chord: x7675x
The chords are basically just E7, with your occasional D -> A change thrown
in. Lyrics, as best as I can remember 'em 25 years later:
When I was just a little boy
A-standin' to my daddy's knee
My papa said, "son, don't let the man getcha
And do what he done to me"
And I can remember the Fourth of July
A-runnin' through the backwoods bare
And I can still hear that old hound dog barkin'
Chasin' down a hoodoo there
Born on the bayou...
Wish I was back on the bayou
A-rollin' with some Cajun queen
Wish I was on a fast freight train
Just a-chooglin' on down to New Orleans
Classic rock - as opposed to "Classic Rock" - by one of the greatest American
bands ever...
Andrew
old fart at play
CCR - "Born On The Bayou"
Words/Music By : John Fogerty
 
 --------------------------------------------

Tabbed By: Jaakko Pimperi (jakep83@yahoo.com)
27.5.1999 V1.0
Chords: E e (these are how the chords should be played in this song!!)
E7 xx2130
A x0222x
Em xx200x
D xx0232
Intro/Rhy. Fig1: (w/ tremolo effect)
 
 ---------------

[4/4] [E7]  
 
 e-|----|-------0---------0----|--------0----------0-------||
 B-|----|----------3------3--3-|-(3)----3--3-------3--3----||
 G-|----|----1---------1-------|-----1----------1---------:||
 D-|----|-2--------------------|--------------------------:||
 A-|--2-|----------------------|---------------------------||
 E-|----|----------------------|---------------------------||

Verse1:
 
 ------

[E7].....
Verse2:
 
 ------

[E7]......
[E7]chasing down a hoodoo there, [D] [A] [(Em)] Chas[E7]in' down a hodoo there[D] [A] [(Em)]
Chorus:
 
 ------

[E7]Born on a bayou [D] [A] [(Em)] [E7] Born on a bayo[D]u [A] [(Em)]
[E7]Born on a bayou, L[D]ord [A]Lord.[(Em)] [E7]
Guitar Solo:
 
 -----------

[E7]  
 
 e-|--------------|-------------------------|--------------------|
 B-|--------------|-------------------------|--------------------|
 G-|-2~~~~~~------|-2-p1--2-p1--2-p1--2-p1--|--2-p1--2-p1-----1--|
 D-|--------------|-------------------------|--------------2-----|
 A-|--------------|-------------------------|--------------------|
 E-|--------------|-------------------------|--------------------|
 e-|-----------------------|--------0-------------|----0-------------------|
 B-|-----------------------|------3---------------|--3---------------------|
 G-|--2-p1--2-p1------1--2-|-2-/4------2--1--2-/4-|-------2--1--2-p1--2-p1-|
 D-|---------------2-------|----------------------|------------------------|
 A-|-----------------------|----------------------|------------------------|
 E-|-----------------------|----------------------|------------------------|
 e-|---------------------|----------------|
 B-|---------------------|----------------|
 G-|--2-p1--2-p1---------|----------------|
 D-|---------------2---2-|-(2)------------|
 A-|---------------------|----------------|
 E-|---------------------|----------------|

(Then repeat Rhy. Fig1)
Verse3 (as Verse1)
(Repeat Chorus)
(Repeat Rhy. Fig1 and fade)
Questions, comments, corrections, requests etc. to jakep83@yahoo.com
Born on the bayou
Creedence Clearwater Revival
Lead Guitar
 
 E||------------------|------------------|-------------------|
 B||------------------|------------------|-------------------|
 G||------------------|------------------|-------------------|
 D||------------------|------------------|-------------------|
 A||------------------|------------------|----------------2--|
 E||------------------|------------------|-------------------|
 --------0----------0-----|-------0----------0-----|--------0----------0-----|
 -----------3----------3--|----------3----------3--|-----------3----------3--|
 -----1----------1--------|----1----------1--------|-----1----------1--------|
 --2----------------------|------------------------|--2----------------------|
 -------------------------|------------------------|-------------------------|
 -------------------------|------------------------|-------------------------|
 -------0----------0-----|--------0----------0-----|-------0----------0-----|
 ----------3----------3--|-----------3----------3--|----------3----------3--|
 ----1----------1--------|-----1----------1--------|----1----------1--------|
 ------------------------|--2----------------------|------------------------|
 ------------------------|-------------------------|------------------------|
 ------------------------|-------------------------|------------------------|
 --------0----------0-----|-------0----------0-----|--0-----0-----0--0-----0--|
 -----------3----------3--|----------3----------3--|--3-----3-----3--3-----3--|
 -----1----------1--------|----1----------1--------|--1-----1-----1--1-----1--|
 --2----------------------|------------------------|--------------------------|
 -------------------------|------------------------|--------------------------|
 -------------------------|------------------------|-----0-----0--------0-----|
 -----0----2----0-----0--|-------0-----0--0-----0--|-----0----2----2-----2--|
 -----3----3----3-----3--|-------3-----3--3-----3--|-----3----3----3-----3--|
 -----1----1----1-----1--|-------1-----1--1-----1--|-----1----1----1-----1--|
 ------------------------|-------------------------|------------------------|
 ------------------------|-------------------------|------------------------|
 --0---------------0-----|--0-------0--------0-----|--0---------------0-----|
 -----0-0------0-----0--0--|-----0----2----2-----0--|-------0-----0--0-----0--|
 -----3-3------3-----3--3--|-----3----3----3-----3--|-------3-----3--3-----3--|
 -----1-1------1-----1--1--|-----1----1----1-----1--|-------1-----1--1-----1--|
 --------------------------|------------------------|-------------------------|
 --------------------------|------------------------|-------------------------|
 --0-------0------0--------|--0---------------0-----|--0-------0--------0-----|
 -----0------------------|-----0--0-----0--0-----0--|-----0-----2----2--------|
 -----3-----2----2-------|-----3--3-----3--3-----3--|-----3-----3----3-----3--|
 -----1-----2----2-------|-----1--1-----1--1-----1--|-----1-----1----1-----1--|
 ------------------------|--------------------------|-------------------------|
 ------------------------|--------------------------|-------------------------|
 --0-----0----------0----|--0--------0--------0-----|--0-----0----------0-----|
 --0-----0-----0--0-----0--|-----0--------------------|--0----0-----0-----0--0--|
 --3-----3-----3--3-----3--|-----3-----2-----2-----3--|--3----3-----3-----3--3--|
 --1-----1-----1--1-----1--|-----1-----2-----2-----1--|--1----1-----1-----1--1--|
 --------------------------|--------------------------|-------------------------|
 --------------------------|--------------------------|-------------------------|
 --0--0-----0--------0-----|--0-----0-----0-----0-----|----------0-----0--------|
 -----0-----2----2-----2--|--------0-----0--0-----0--|-----0----2----2-----2--|
 -----3-----3----3-----3--|--------3-----3--3-----3--|-----3----3----3-----3--|
 -----1-----1----1-----1--|--------1-----1--1-----1--|-----1----1----1-----1--|
 -------------------------|--------------------------|------------------------|
 -------------------------|--------------------------|------------------------|
 --0-----0----------0-----|--0--0-----0--------0-----|--0---------------0-----|
 --0-----0-----0--0-----0--|----0-----2----2-----0--|-----0--0-----0-----0--0--|
 --3-----3-----3--3-----3--|----3-----3----3-----3--|-----3--3-----3-----3--3--|
 --1-----1-----1--1-----1--|----1-----1----1-----1--|-----1--1-----1-----1--1--|
 --------------------------|------------------------|--------------------------|
 --------------------------|------------------------|--------------------------|
 -----0-----0--------0-----|-------0----------0-----|--0--------0-----0--------|
 -----0-----2----0----0--|--0-----0-----0--0-----0--|----0----2----0-----0--|
 -----3-----3----2----2--|--3-----3-----3--3-----3--|----3----3----2-----2--|
 -----1--2--2----2----2--|--1-----1-----1--1-----1--|----1----2----2-----2--|
 ------------------------|--------------------------|-----------------------|
 ------------------------|--------------------------|-----------------------|
 --0---------------------|-----0-----0--------0-----|-----------------0-----|
 --0-----0-----0--0-----0--|---------0------------|--0-----0-----0-----0--0--|
 --3-----3-----3--3-----3--|---------2----0-------|--------3-----3-----3--3--|
 --1-----1-----1--1-----1--|---------2----0----1--|-----1--1-----1-----1--1--|
 --------------------------|----------------------|--------------------------|
 --------------------------|----------------------|--------------------------|
 -----0-----0--------0-----|--0----------------0--|--0--------0-----0--------|
 -----0--2------0-----0--|--0----0-----0-----0--0--|-----0----2----0-----0--|
 -----3--3------2-----2--|--3----3-----3-----3--3--|-----3----3----2-----3--|
 -----1--2------2-----2--|--1----1-----1-----1--1--|-----1----2----2-----1--|
 ------------------------|-------------------------|------------------------|
 ------------------------|-------------------------|------------------------|
 --0---------------0-----|----------0-----0--------|--0---------------0-----|
 --0----0-----0--0-----0--|-----0--0-----0-----0----|-------------------|
 --3----3-----3--3-----3--|-----3--3-----3-----3----|-------------------|
 --1----1-----1--1-----1--|-----1--1-----1-----1----|--2----------------|
 -------------------------|-------------------------|-------------------|
 -------------------------|-------------------------|-------------------|
 ----------0--------0-----|--0--------0-----0-------|-------------------|
 --------------------------|------------------------|------------------------|
 --------------------------|------------------------|------------------------|
 --2--1--2--1--2--1--2--1--|--2---------------------|------------------------|
 --------------------------|-----2----2----3--6-----|--7--6------------6--7--|
 --------------------------|---------------7-----7--|----------7----7--------|
 --------------------------|------------------------|------------------------|
 ----------------------|-----------------------|------------------------|
 --0----3----0---------|--0----3----0----------|------------------------|
 -----------------2----|--------------2--------|------2--1--2--1--2--1--|
 ----------------------|------------------2----|------------------------|
 ----------------------|-----------------------|------------------------|
 ----------------------|-----------------------|------------------------|
 ----------------------|--4----4----4----4--4--|------4--4----------|
 ----------------------|--5----5----5----5--5--|------5--5----------|
 --2--1----------------|--4----4----4----4--4--|------4--4----------|
 --------2--2----------|-----------------------|--------------------|
 ----------------------|-----------------------|--------------------|
 ----------------------|-----------------------|--------------------|
 --4----4----4----4----|--4------------------|--4----4----4----4--4--|
 --5----5----5----5----|--5------------------|--5----5----5----5--5--|
 --4----4----4----4----|--4--4----4----------|--4----4----4----4--4--|
 ----------------------|-----2----2----------|-----------------------|
 ----------------------|---------------------|-----------------------|
 ----------------------|---------------------|-----------------------|
 --4----4--4----------|--2----2----0--0----0--|----4----2----0------|
 --5----5--5----------|--3----3----2--2----0--|----5----3-----------|
 --4----4--4----------|--2----2----2--2----1--|---------------------|
 ---------------------|-----------------------|---------------------|
 ---------------------|-----------------------|---------------------|
 ---------------------|-----------------------|---------------------|
 --2----2----0----0--0--|----4----2----0------|--2----2----0--0----0--|
 --3----3----2----2--0--|----5----------------|--3----3----2--2----0--|
 --2----2----2----2--1--|---------------------|--2----2----2--2----1--|
 -----------------------|---------------------|-----------------------|
 -----------------------|---------------------|-----------------------|
 -----------------------|---------------------|-----------------------|
 ----4----2----0------|-----------------------|------------------|
 ----5----------------|--3----3----2--2----0--|------------------|
 ---------------------|--2----2----2--2----1--|------------------|
 ---------------------|-----------------------|------------------|
 ---------------------|-----------------------|------------------|
 ---------------------|-----------------------|------------------|
 ----------------------|----------------------|----------------------|
 ----------------------|----------------------|----------------------|
 ----------------------|----------------------|----------------------|
 --2-----------2-------|----------------2-----|--2-----------2-------|
 -----------4----------|----------2--4-----4--|-----------4----------|
 -------------------0--|----------------------|-------------------0--|
 ----------------------|----------------------|----------------------|
 ----------------------|----------------------|----------------------|
 ----------------------|----------------------|----------------------|
 ----------------2-----|--2-----------2-------|----------------2-----|
 ----------2--4-----4--|-----------4----------|----------2--4-----4--|
 ----------------------|-------------------0--|----------------------|
 ----------------------|---------------------|--------0----------0-----|
 ----------------------|---------------------|-----------3----------3--|
 ----------------------|---------------------|-----1----------1--------|
 --2-----------2-------|----------------2----|--2----------------------|
 -----------4----------|----------2--4-------|-------------------------|
 -------------------0--|---------------------|-------------------------|
 -------0----------0-----|-------0----------0-----|-------0----------0-----|
 ----------3----------3--|----------3----------3--|----------3----------3--|
 ----1----------1--------|----1----------1--------|----1----------1--------|
 ------------------------|------------------------|------------------------|
 ------------------------|------------------------|------------------------|
 ------------------------|------------------------|------------------------|
 --0-----0-----0--0-----0--|-----0----2----0-----0--|-------0-----0--0-----0--|
 --3-----3-----3--3-----3--|-----3----3----3-----3--|-------3-----3--3-----3--|
 --1-----1-----1--1-----1--|-----1----1----1-----1--|-------1-----1--1-----1--|
 --------------------------|------------------------|-------------------------|
 --------------------------|------------------------|-------------------------|
 -----0-----0--------0-----|--0---------------0-----|--0-------0--------0-----|
 -----0----2----2-----2--|-----0--0-----0-----0--0--|-----0----2----2-----0--|
 -----3----3----3-----3--|-----3--3-----3-----3--3--|-----3----3----3-----3--|
 -----1----1----1-----1--|-----1--1-----1-----1--1--|-----1----1----1-----1--|
 ------------------------|--------------------------|------------------------|
 ------------------------|--------------------------|------------------------|
 --0---------------0-----|--0--------0-----0--------|--0---------------0-----|
 -------0-----0--0-----0--|-----0------------------|-----0--0-----0--0-----0--|
 -------3-----3--3-----3--|-----3-----2----2-------|-----3--3-----3--3-----3--|
 -------1-----1--1-----1--|-----1-----2----2-------|-----1--1-----1--1-----1--|
 -------------------------|------------------------|--------------------------|
 -------------------------|------------------------|--------------------------|
 --0-------0--------0-----|--0-----0----------0----|--0--------0--------0-----|
 -----0-----2----2--------|--0-----0-----0--0-----0--|-----0--------------------|
 -----3-----3----3-----3--|--3-----3-----3--3-----3--|-----3-----2-----2-----3--|
 -----1-----1----1-----1--|--1-----1-----1--1-----1--|-----1-----2-----2-----1--|
 -------------------------|--------------------------|--------------------------|
 -------------------------|--------------------------|--------------------------|
 --0-----0----------0-----|--0--0-----0--------0-----|--0-----0-----0-----0-----|
 --0----0-----0-----0--0--|-----0-----2----2-----2-0-|-------0-----0--0-----0--|
 --3----3-----3-----3--3--|-----3-----3----3-----3---|-------3-----3--3-----3--|
 --1----1-----1-----1--1--|-----1-----1----1-----1---|-------1-----1--1-----1--|
 -------------------------|--------------------------|-------------------------|
 -------------------------|--------------------------|-------------------------|
 ----------0-----0--------|--0-----0----------0------|----0-----0--------0-----|
 -----0----2----2-----2--|----------------------|----------------------|
 -----3----3----3-----3--|----------------------|----------------------|
 -----1----1----1-----1--|----------------------|----------------------|
 ------------------------|--2-----------2-------|----------------2-----|
 ------------------------|-----------4----------|----------2--4-----4--|
 --0---------------0-----|-------------------0--|----------------------|
 ----------------------|----------------------|----------------------|
 ----------------------|----------------------|----------------------|
 ----------------------|----------------------|----------------------|
 --2-----------2-------|----------------2-----|--2-----------2-------|
 -----------4----------|----------2--4-----4--|-----------4----------|
 -------------------0--|----------------------|-------------------0--|
 ----------------------|----------------------|----------------------|
 ----------------------|----------------------|----------------------|
 ----------------------|----------------------|----------------------|
 ----------------2-----|--2-----------2-------|----------------2-----|
 ----------2--4-----4--|-----------4----------|----------2--4-----4--|
 ----------------------|-------------------0--|----------------------|
 ----------------------|----------------------|----------------------|
 ----------------------|----------------------|----------------------|
 ----------------------|----------------------|----------------------|
 --2-----------2-------|----------------2-----|--2-----------2-------|
 -----------4----------|----------2--4-----4--|-----------4----------|
 -------------------0--|----------------------|-------------------0--|
 ----------------------|----------------------|----------------------|
 ----------------------|----------------------|----------------------|
 ----------------------|----------------------|----------------------|
 ----------------2-----|--2-----------2-------|----------------2-----|
 ----------2--4-----4--|-----------4----------|----------2--4-----4--|
 ----------------------|-------------------0--|----------------------|
 --2----2----0--0-------|------------------|------------------|
 --3----3----2--2-------|------------------|------------------|
 --2----2----2--2-------|------------------|------------------|
 --------------------2--|------------------|------------------|
 -----------------------|------------------|------------------|
 --------------------0--|------------------|------------------|
 -------------------|------------------|------------------|------------------|
 -------------------|------------------|------------------|------------------|
 -------------------|------------------|------------------|------------------|
 --2----------------|------------------|------------------|------------------|
 -------------------|------------------|------------------|------------------|
 -------------------|------------------|------------------|------------------|
 --------0----------0-----|-------0----------0-----|--------0----------0-----|
 -----------3----------3--|----------3----------3--|-----------3----------3--|
 -----1----------1--------|----1----------1--------|-----1----------1--------|
 --2----------------------|------------------------|--2----------------------|
 -------------------------|------------------------|-------------------------|
 -------------------------|------------------------|-------------------------|
 -------0----------0-----|--------0----------0-----|-------0----------0-----|
 ----------3----------3--|-----------3----------3--|----------3----------3--|
 ----1----------1--------|-----1----------1--------|----1----------1--------|
 ------------------------|--2----------------------|------------------------|
 ------------------------|-------------------------|------------------------|
 ------------------------|-------------------------|------------------------|
 --------0----------0-----|-------0----------0-----|--0----0-----0-----0--0--|
 -----------3----------3--|----------3----------3--|--3----3-----3-----3--3--|
 -----1----------1--------|----1----------1--------|--1----1-----1-----1--1--|
 --2----------------------|------------------------|-------------------------|
 -------------------------|------------------------|-------------------------|
 -------------------------|------------------------|----------0-----0--------|
 -----0-----2----2-----2-0-|-------0-----0--0-----0--|-----0----2----2-----2--|
 -----3-----3----3-----3---|-------3-----3--3-----3--|-----3----3----3-----3--|
 -----1-----1----1-----1---|-------1-----1--1-----1--|-----1----1----1-----1--|
 --------------------------|-------------------------|------------------------|
 --------------------------|-------------------------|------------------------|
 --0-----0----------0------|----0-----0--------0-----|--0---------------0-----|
 --0-----0-----0--0-----0--|----0-----2----2-----0--|-----0--0-----0-----0--0--|
 --3-----3-----3--3-----3--|----3-----3----3-----3--|-----3--3-----3-----3--3--|
 --1-----1-----1--1-----1--|----1-----1----1-----1--|-----1--1-----1-----1--1--|
 --------------------------|------------------------|--------------------------|
 --------------------------|------------------------|--------------------------|
 -----0-----0--------0-----|-------0----------0-----|--0--------0-----0--------|
 -----0-----2----0----0--|--0-----0-----0--0-----0--|----0----2----0-----0--|
 -----3-----3----2----2--|--3-----3-----3--3-----3--|----3----3----2-----2--|
 -----1--2--2----2----2--|--1-----1-----1--1-----1--|----1----2----2-----2--|
 ------------------------|--------------------------|-----------------------|
 ------------------------|--------------------------|-----------------------|
 --0---------------------|-----0-----0--------0-----|-----------------0-----|
 --0-----0-----0--0-----0--|---------0------------|--0-----0-----0-----0--0--|
 --3-----3-----3--3-----3--|---------2--0---------|--------3-----3-----3--3--|
 --1-----1-----1--1-----1--|---------2--0------1--|-----1--1-----1-----1--1--|
 --------------------------|----------------------|--------------------------|
 --------------------------|----------------------|--------------------------|
 -----0-----0--------0-----|--0----------------0--|--0--------0-----0--------|
 -----0--2------0-----0--|--0----0-----0-----0--0--|-----0----2----0-----0--|
 -----3--3------2-----2--|--3----3-----3-----3--3--|-----3----3----2-----3--|
 -----1--2------2-----2--|--1----1-----1-----1--1--|-----1----2----2-----1--|
 ------------------------|-------------------------|------------------------|
 ------------------------|-------------------------|------------------------|
 --0---------------0-----|----------0-----0--------|--0---------------0-----|
 --0----0-----0--0-----0--|-----0--0-----0-----0----|--------0----------0-----|
 --3----3-----3--3-----3--|-----3--3-----3-----3----|-----------3----------3--|
 --1----1-----1--1-----1--|-----1--1-----1-----1----|-----1----------1--------|
 -------------------------|-------------------------|--2----------------------|
 -------------------------|-------------------------|-------------------------|
 ----------0--------0-----|--0--------0-----0-------|-------------------------|
 -------0----------0-----|--------0----------0-----|-------0----------0-----|
 ----------3----------3--|-----------3----------3--|----------3----------3--|
 ----1----------1--------|-----1----------1--------|----1----------1--------|
 ------------------------|--2----------------------|------------------------|
 ------------------------|-------------------------|------------------------|
 ------------------------|-------------------------|------------------------|
 --------0----------0-----|-------0----------0-----|--------0----------0-----|
 -----------3----------3--|----------3----------3--|-----------3----------3--|
 -----1----------1--------|----1----------1--------|-----1----------1--------|
 --2----------------------|------------------------|--2----------------------|
 -------------------------|------------------------|-------------------------|
 -------------------------|------------------------|-------------------------|
 -------0----------0-----|--0----------------|------------------|
 ----------3----------3--|--3----------------|------------------|
 ----1----------1--------|--1----------------|------------------|
 ------------------------|-------------------|------------------|
 ------------------------|-------------------|------------------|
 ------------------------|-------------------|------------------|
 ------------------|------------------|------------------|------------------|
 ------------------|------------------|------------------|------------------|
 ------------------|------------------|------------------|------------------|
 ------------------|------------------|------------------|------------------|
 ------------------|------------------|------------------|------------------|
 ------------------|------------------|------------------|------------------|
 ------------------|------------------|------------------|------------------|
 ------------------|------------------|------------------|------------------|
 ------------------|------------------|------------------|------------------|
 ------------------|------------------|------------------|------------------|
 ------------------|------------------|------------------|------------------|
 ------------------|------------------|------------------|------------------|
 ------------------|------------------|------------------|------------------||
 ------------------|------------------|------------------|------------------||
 ------------------|------------------|------------------|------------------||
 ------------------|------------------|------------------|------------------||
 ------------------|------------------|------------------|------------------||
 ------------------|------------------|------------------|------------------||


Important: The song above is NOT stored on the Chordie server. The original song is hosted at www.xguitar.com. Chordie works as a search engine and provides on-the-fly formatting. Chordie does not index songs against artists'/composers' will. To remove this song please click here.

Text color:
Chord color:
Chord grids: 
Font size:    
Page size: 

A D E7
Rate #1 of 1 versions

Login - add to songbook

SHARE PAGE  



You need to log in to post comments