Guitar Tabs, Chords and Lyrics
Major upgrade!! After one year development the new version of Chordie is now online! Please give feedback.


Final Resistance  Dark Tranquillity

Dark Tranquillity - Final Resistance
Tabbed By: James Williams
Submitted by: himmelfarht
Email: this_is_the_prophecy@hotmail.com
Tuning: (Db Gb B E Ab Db)
Gtr I (Db Gb B E Ab Db) - 'Niklas Sundin'
Gtr II (Db Gb B E Ab Db) - 'Michael Niklasson'
Gtr III (Db Gb B E Ab Db) - 'Martin Brändström'
Gtr IV (Db Gb B E Ab Db) - 'Martin Brändström'
Intro
Moderate Metal Q=115
[4/4] Gtrs I, II
S S S S S S S S S S S S S S S S S S S S S S S S S S S S S S S S
 
 |---------------------------------|----------------------------------|
 |---------------------------------|----------------------------------|
 |---------------------------------|----------------------------------|
 |---------------------------------|----------------------------------|
 |---------------------------------|----------------------------------|
 |-0-0-0-0-0-0-0-0-0-0-0-0-0-0-0-0-|-0-0-0-0-0-0-0-0-0-0-0-0-0-0-0-0--|

Gtr I
S S S S S S S S S S S S S S S S S S S S S S S S S S S S S S S S
 
 |----------------------------------|----------------------------------|
 |----------------------------------|----------------------------------|
 |----------------------------------|----------------------------------|
 |----------------------------------|----------------------------------|
 |--------------------------2-2-3-3-|-2-2--------------------------2-2-|
 |--0-0-0-0-0-0-0-0-0-0-0-0---------|------0-0-0-0-0-0-0-0-0-0-0-0-----|

|
| Gtr II
| E E E E E E E E E E E E E E E E
 
 |----------------------------------|----------------------------------|
 |----------------------------------|----------------------------------|
 |----------------------------------|----------------------------------|
 |--------------------------9-------|------------------------------9---|
 |-10-------9-------7-----------7---|-----10-------9-------7-----------|
 |------0-------0-------0-----------|-0--------0-------0-------0-------|

S S S S S S S S S S S S S S S S S S S S S S S S S S S S S S S S
 
 |----------------------------------|----------------------------------|
 |----------------------------------|----------------------------------|
 |----------------------------------|----------------------------------|
 |----------------------------------|----------------------------------|
 |-3-3-2-2--------------------------|-2-2-3-3-2-2----------0-0-0-0-2-2-|
 |----------0-0-0-0-0-0-0-0-0-0-0-0-|--------------3-3-3-3-------------|

|
| E E E E E E E E E E E E E E E E
 
 |----------------------------------|----------------------------------|
 |----------------------------------|----------------------------------|
 |----------------------------------|----------------------------------|
 |----------------------------------|-9--------------------------------|
 |-7-------10-------9-------7-------|-----7-------10-------9-------7---|
 |-----0--------0-------0-------0---|---------0--------0-------0-------|

S S S S S S S S S S S S S S S S S S S S S S S S S S S S S S S S
 
 |----------------------------------|----------------------------------|
 |----------------------------------|----------------------------------|
 |----------------------------------|----------------------------------|
 |----------------------------------|----------------------------------|
 |--3-3-3-3-3-3-3-3-3-3-3-3-2-2-3-3-|-0-0-3-3-2-2----------0-0-0-0-2-2-|
 |----------------------------------|--------------3-3-3-3-------------|

|
| E E E E E E E E E E E E E E E E
 
 |----------------------------------|----------------------------------|
 |----------------------------------|----------------------------------|
 |----------------------------------|----------------------------------|
 |--------------------------9-------|----------------------------------|
 |-10-------9-------7-----------7---|-----7---9---10-------9-------7---|
 |------8-------8-------8-----------|-8----------------8-------8-------|

Gtrs I, II
 
 PM--------------| PM----------------|

S S S S E S S S S E S S S S S S S S E S S S S E S S S S
 
 |-----------------------------|-----------------------------|
 |-----------------------------|-----------------------------|
 |-----------------------------|-----------------------------|
 |-----------------------------|-----------------------------|
 |---------------------2-2-3-3-|-2-2---------------------2-2-|
 |-0-0-0-0---0-0-0-0-----------|-----0-0---0-0-0-0---0-0-----|
 PM--------------|

S S S S S S S S E S S S S E S S S S S S S S S S S S S S S S
 
 |-----------------------------|------------------------------------|
 |-----------------------------|------------------------------------|
 |-----------------------------|------------------------------------|
 |-----------------------------|------------------------------------|
 |-3-3-2-2---------------------|-2--2-3-3-2-2----------0-0-0-0--2-2-|
 |---------0-0-0-0---0-0-0-0---|--------------3-3-3-3---------------|

|
| Gtr III
| W Q. Q Q E
 
 |-----------------------------|------------------------------------|
 |-----------------------------|--------------8-------10-------12---|
 |-----------------------------|------------------------------------|
 |-----------------------------|--------------5--------7--------9---|
 |-----------------------------|------------------------------------|
 |-----------------------------|------------------------------------|

S S S S S S S S S S S S S S S S S S S S S S S S S S S S S S S S
 
 |----------------------------------|-----------------------------------|
 |----------------------------------|-----------------------------------|
 |----------------------------------|-----------------------------------|
 |----------------------------------|-----------------------------------|
 |-3--3-3-3-3-3-3-3-3-3-3-3-2-2-3-3-|-0-0-3-3-2-2----------0-0-0-0--2-2-|
 |----------------------------------|-------------3-3-3-3---------------|

|
| Q Q Q E E E E E Q Q E
 
 |--------------------------7-------|-----------------------------------|
 |-8--------7-------5-----------5---|-----5---7---8-------10-------12---|
 |----------------------------------|-5---------------------------------|
 |----------------------------------|-------------5--------7--------9---|
 |-3--------------------------------|-----------------------------------|
 |----------------------------------|-----------------------------------|

H. Q
Verse
Gtr I
PM PM PM PM PM PM
S S S S S S S S S S S S S S S S
 
 ||------------------------------------|
 ||o-----------------------------------|
 ||------------------------------------|
 ||------------------------------------|
 ||o-10---10---9---9---7---7-----------|
 ||-----0----0---0---0---0---0-7-0-7-0-|

|
| Gtr II
| PM PM PM PM PM PM
| S S S S S S S S S S S S S S S S
 
 ||------------------------------------|
 ||o-----------------------------------|
 ||------------------------------------|
 ||------------------------------------|
 ||o-10---10---9---9---7---7-----------|
 ||-----0----0---0---0---0---0-7-0-7-0-|

PM PM PM PM
S S S S S S S S S S S S S S S S
 
 |-----------------------------------------|
 |-----------------------------------------|
 |-----------------------------------------|
 |--------------------------------------7--|
 |-10---10---9---9---7----7--9-10--9-10----|
 |----0----0---0---0---10------------------|

|
| PM PM PM PM
| S S S S S S S S S S S S S S S S
 
 |-----------------------------------------|
 |-----------------------------------------|
 |-----------------------------------------|
 |-----------------------------------------|
 |-10---10---9---9--------------7-----7-9--|
 |----0----0---0---0-8--7-8-10----10-------|

PM PM PM PM PM PM PM PM PM[B5] [G5A5]
S S S S S S S S S S S S S S S S S S S S S S S S Q E E
 
 |-----------------------------------|----------------------------||
 |-----------------------------------|---------------------------o||
 |-----------------------------------|----------------------------||
 |-----------------------------------|------9---------------------||
 |-10---10---9---9---7---7-----------|-10-------10---9-10-9--5-7-o||
 |----0----0---0---0---0---0-7-0-7-0-|----0---0----0------7--3-5--||

|
| PM PM PM PM PM PM PM PM PM
| S S S S S S S S S S S S S S S S S S S S S S S S Q E E
 
 |-----------------------------------|----------------------------||
 |-----------------------------------|---------------------------o||
 |-----------------------------------|----------------------------||
 |-----------------------------------|------9---------------------||
 |-10---10---9---9---7---7-----------|-10-------10---9-10-9--5-7-o||
 |----0----0---0---0---0---0-7-0-7-0-|----0---0----0------7--3-5--||

Pre-Chorus
Gtrs I, II
 
 PM--------------| PM----------------|

S S S S E S S S S E S S S S S S S S E S S S S E S S S S
 
 |-----------------------------|-----------------------------|
 |-----------------------------|-----------------------------|
 |-----------------------------|-----------------------------|
 |-----------------------------|-----------------------------|
 |---------------------2-2-3-3-|-2-2---------------------2-2-|
 |-0-0-0-0---0-0-0-0-----------|-----0-0---0-0-0-0---0-0-----|
 PM--------------|

S S S S S S S S E S S S S E S S S S S S S S S S S S S S S S
 
 |-----------------------------|------------------------------------|
 |-----------------------------|------------------------------------|
 |-----------------------------|------------------------------------|
 |-----------------------------|------------------------------------|
 |-3-3-2-2---------------------|-2--2-3-3-2-2----------0-0-0-0--2-2-|
 |---------0-0-0-0---0-0-0-0---|--------------3-3-3-3---------------|

|
| Gtr III
| W Q. Q Q E
 
 |-----------------------------|------------------------------------|
 |-----------------------------|--------------8-------10-------12---|
 |-----------------------------|------------------------------------|
 |-----------------------------|--------------5--------7--------9---|
 |-----------------------------|------------------------------------|
 |-----------------------------|------------------------------------|

S S S S S S S S S S S S S S S S S S S S S S S S S S S S S S S S
 
 |----------------------------------|-----------------------------------|
 |----------------------------------|-----------------------------------|
 |----------------------------------|-----------------------------------|
 |----------------------------------|-----------------------------------|
 |-3--3-3-3-3-3-3-3-3-3-3-3-2-2-3-3-|-0-0-3-3-2-2----------0-0-0-0--2-2-|
 |----------------------------------|-------------3-3-3-3---------------|

|
| Q Q Q E E E E E Q Q E
 
 |--------------------------7-------|-----------------------------------|
 |-8--------7-------5-----------5---|-----5---7---8-------10-------12---|
 |----------------------------------|-5---------------------------------|
 |----------------------------------|-------------5--------7--------9---|
 |-3--------------------------------|-----------------------------------|
 |----------------------------------|-----------------------------------|

H. Q
Chorus
$
[E5]Gtr I[G5]
[E] [E] [E] [E] [E] [E] [E] [E]  
 
 ||----------------------------------------|
 ||o---------------------------------------|
 ||----------------------------------------|
 ||----------------------------------------|
 ||o-2----2----2----5-----5----5---5---5---|
 ||--0----0----0----3-----3----3---3---3---|

|
| Gtr II
| S S S S S S S S S S S S S S S S
 
 ||----------------------------------------|
 ||o---------------------------------------|
 ||----------------------------------------|
 ||----------------------------9-9-7-7-9-9-|
 ||o-----10-10-9-9-10-10-------------------|
 ||--0-0-----------------10-10-------------|

[C5] [G5] [B5/FG] [B5/F#] 
[E] [E] [E] [E] [E] [E] [E] [E]  
 
 |-----------------------------------------||
 |----------------------------------------o||
 |-----------------------------------------||
 |-5---5----5------------------------------||
 |-3---3----3-----5-----5----2---2---2----o||
 |----------------3-----3----2---3---2-----||

|
| S S S S S S S S S S S S S S S S
 
 |-----------------------------------------||
 |----------------------------------------o||
 |-----------------------------------------||
 |-------------------------------9-9-------||
 |-7-7-7-7-10-10-10-10-10-10-9-9-----9-9--o||
 |-----------------------------------------||

Verse
PM| PM PM PM| PM| PM| PM PM PM|[B5] [C5] [B5]
S S S S S S S S S S S S S S S S S S S S S S S S S E S E E
 
 ||-------------------------------------|-------------------------------||
 ||o------------------------------------|------------------------------o||
 ||-------------------------------------|-------------------------------||
 ||----------------------9--------------|-------------------------------||
 ||o-----10---9---10-----------9-10-9-7-|-----10---9---10-----9-9-10-9-o||
 ||--0-0----0---0----0-0---0-0----------|-0-0----0---0----0-0-7-7--8-7--||

|
| PM| PM PM PM| PM| PM| PM PM PM|
| S S S S S S S S S S S S S S S S S S S S S S S S S E S E E
 
 ||-------------------------------------|-------------------------------||
 ||o------------------------------------|------------------------------o||
 ||-------------------------------------|-------------------------------||
 ||----------------------5--------------|-------------------------------||
 ||o------7---5----7-----------5--7-5-3-|------7---5----7-----5-5--7-5-o||
 ||--0-0----0---0----0-0---0-0----------|-0-0----0---0----0-0-7-7--8-7--||

PM| [E5] PM[D5] PM[C5] PM| [B5] PM| [C5] PM[B5] PM----| [E5] PM[D5] PM[C5] PM|[A5G5]
S S S S S S S S S S S S S S S S S S S S S S S S S E S S S S S
 
 |------------------------------------|-----------------------------------|
 |------------------------------------|-----------------------------------|
 |------------------------------------|-----------------------------------|
 |----------7-------------------------|----------7----------7-9-10-9-7-9--|
 |-----10-------10-----9-----10---9---|-----10-------10-------------------|
 |-0-0----0---0----0-0---0-0----0---0-|-0-0----0---0----0-0---------------|

|
| PM| PM PM PM| PM| PM PM----| PM PM PM|
| S S S S S S S S S S S S S S S S S S S S S S S S S E S S S S S
 
 |------------------------------------|-----------------------------------|
 |------------------------------------|-----------------------------------|
 |------------------------------------|-----------------------------------|
 |------9---7----5-----4------5---4---|------9---7----5-------------------|
 |------7---5----3-----2------3---2---|------7---5----3-----7-5--5-5-5-5--|
 |-0-0----0---0----0-0---0-0----0---0-|-0-0----0---0----0-0-5-3--3-3-3-3--|

PM| [E5] PM[D5] PM[C5] PM| [B5] PM| [C5] PM[B5] PM----| [E5] PM[D5] PM[C5] PM|
S S S S S S S S S S S S S S S S S S S S S S S S S E S S S S S
 
 |------------------------------------|--------------------------------------|
 |------------------------------------|--------------------------------------|
 |------------------------------------|--------------------------------------|
 |----------7-------------------------|----------7----------7--9-10--9-7--9--|
 |-----10-------10-----9-----10---9---|-----10-------10----------------------|
 |-0-0----0---0----0-0---0-0----0---0-|-0-0----0---0----0-0------------------|

|
| PM| PM PM PM| PM| PM PM----| PM PM PM|
| S S S S S S S S S S S S S S S S S S S S S S S S S E S S S S S
 
 |------------------------------------|--------------------------------------|
 |------------------------------------|--------------------------------------|
 |------------------------------------|--------------------------------------|
 |------9---7----5-----4------5---4---|------9---7----5-----------7----------|
 |------7---5----3-----2------3---2---|------7---5----3-----9-10----10-9-10--|
 |-0-0----0---0----0-0---0-0----0---0-|-0-0----0---0----0-0------------------|

Chorus
[E5] [G5]  
[E] [E] [E] [E] [E] [E] [E] [E]  
 
 ||----------------------------------------|
 ||o---------------------------------------|
 ||----------------------------------------|
 ||----------------------------------------|
 ||o-2----2----2----5-----5----5---5---5---|
 ||--0----0----0----3-----3----3---3---3---|

|
| S S S S S S S S S S S S S S S S
 
 ||----------------------------------------|
 ||o---------------------------------------|
 ||----------------------------------------|
 ||----------------------------9-9-7-7-9-9-|
 ||o-----10-10-9-9-10-10-------------------|
 ||--0-0-----------------10-10-------------|

To Coda
[C5] [G5] [B5/FG] [B5/F#] 
[E] [E] [E] [E] [E] [E] [E] [E]  
 
 |-----------------------------------------||
 |----------------------------------------o||
 |-----------------------------------------||
 |-5---5----5------------------------------||
 |-3---3----3-----5-----5----2---2---2----o||
 |----------------3-----3----2---3---2-----||

|
| S S S S S S S S S S S S S S S S
 
 |-----------------------------------------||
 |----------------------------------------o||
 |-----------------------------------------||
 |-------------------------------9-9-------||
 |-7-7-7-7-10-10-10-10-10-10-9-9-----9-9--o||
 |-----------------------------------------||

Interlude
[E5]Gtrs I, II[G5] [A5]
H E E Q
 
 |-------------------------------------------------|
 |-------------------------------------------------|
 |-------------------------------------------------|
 |-------------------------------------------------|
 |--2-----------------------5-----7----------------|
 |--0-----------------------3-----5----------------|

|
| Gtr IV
| S S S S S S S S S S S S S S S S
 
 |-------------------------------------------------|
 |-12----------12----------12----13----12----------|
 |-------12-14-------12-14-------------------12-14-|
 |----14----------14----------14----14----14-------|
 |-------------------------------------------------|
 |-12----------------------------------12----------|

Q [G5] E [A5] E [B5]H
 
 |-----------------------------------------|
 |-----------------------------------------|
 |-----------------------------------------|
 |-------------------------4---------------|
 |--------------5-----7----2---------------|
 |--------------3-----5--------------------|

|
| S S S S S S S S S S S S S S S S
 
 |-----------------------------------------|
 |-12----------12----13----7-------7-------|
 |-------12-14-----------------8-9-----8-9-|
 |----14----------14----14---9-------9-----|
 |-----------------------------------------|
 |-------------------------7---------------|

[B5]E E Q Q E [C5]E
 
 |---------------------------------|
 |---------------------------------|
 |---------------------------------|
 |-4---4-------------------4---5---|
 |-2---2-------------------2---3---|
 |---------------------------------|

|
| S S S S S S S S S S S S S S S S
 
 |---------------------------------|
 |-7---8---7-------7-------7---8---|
 |-------------8-9-----8-9---------|
 |---9---9---9-------9-------9---9-|
 |---------------------------------|
 |---------7-----------------------|

[E5] H. [G5]Q
 
 |----------------------------------------------|
 |----------------------------------------------|
 |--4-------------------------------------------|
 |--2-------------------------------------------|
 |--------------------------------------5-------|
 |--------------------------------------3-------|

|
| S S S S S S S S S S S S S S S S
 
 |--------------------------------------7-----5-|
 |-12-----------12----------12----13--------8---|
 |--------12-14-------12-14---------------------|
 |-----14----------14----------14----14---5-----|
 |----------------------------------------------|
 |-12-----------------------------------3-------|

+Q [G5]E [A5]E [C5]H +Q [B5]H [A5]Q
 
 |--------------------------------------|--------------------------------------|
 |--------------------------------------|--------------------------------------|
 |--------------------------------------|--------------------------------------|
 |--------------------5-----------------|-(5)----------4-----------------------|
 |-(5)-------5---7----3-----------------|-(3)----------2---------------7-------|
 |-(3)-------3---5----------------------|------------------------------5-------|

|
| S S S S S S S S S S S S S S S S S S S S S S S S S S S S S S S S
 
 |--7------5-7---8----------------------|--------------7-------7-------5---8---|
 |-------8------------8------7-8------7-|--8-----10--------7-8-----7-8---------|
 |-------------------------9--------9---|--------------------------------------|
 |-----5-------5--------10-------10-----|-----10----10---9-------9-------7---7-|
 |-----------------10-------------------|--------------------------------------|
 |--------------------8-----------------|--------------7---------------5-------|

Gtr I
S S S S S S S S S S S S S S S S S S S S S S S S S S S S S S S S
 
 |----------------------------------|----------------------------------|
 |----------------------------------|----------------------------------|
 |----------------------------------|----------------------------------|
 |----------------------------------|----------------------------------|
 |--------------------------2-2-3-3-|-2-2--------------------------2-2-|
 |--0-0-0-0-0-0-0-0-0-0-0-0---------|------0-0-0-0-0-0-0-0-0-0-0-0-----|

|
| Gtr II
| E E E E E E E E E E E E E E E E
 
 |----------------------------------|----------------------------------|
 |----------------------------------|----------------------------------|
 |----------------------------------|----------------------------------|
 |--------------------------9-------|------------------------------9---|
 |-10-------9-------7-----------7---|-----10-------9-------7-----------|
 |------0-------0-------0-----------|-0--------0-------0-------0-------|

S S S S S S S S S S S S S S S S S S S S S S S S S S S S S S S S
 
 |----------------------------------|----------------------------------|
 |----------------------------------|----------------------------------|
 |----------------------------------|----------------------------------|
 |----------------------------------|----------------------------------|
 |-3-3-2-2--------------------------|-2-2-3-3-2-2----------0-0-0-0-2-2-|
 |----------0-0-0-0-0-0-0-0-0-0-0-0-|--------------3-3-3-3-------------|

|
| E E E E E E E E E E E E E E E E
 
 |----------------------------------|----------------------------------|
 |----------------------------------|----------------------------------|
 |----------------------------------|----------------------------------|
 |----------------------------------|-9--------------------------------|
 |-7-------10-------9-------7-------|-----7-------10-------9-------7---|
 |-----0--------0-------0-------0---|---------0--------0-------0-------|

S S S S S S S S S S S S S S S S S S S S S S S S S S S S S S S S
 
 |----------------------------------|--------------------------------------|
 |----------------------------------|--------------------------------------|
 |----------------------------------|--------------------------------------|
 |----------------------------------|--------------------------------------|
 |--3-3-3-3-3-3-3-3-3-3-3-3-2-2-3-3-|--0--0-3-3-2-2-----------0-0-0-0--2-2-|
 |----------------------------------|----------------3-3-3-3---------------|

|
| E E E E E E E E E E E E E E E E
 
 |----------------------------------|--------------------------------------|
 |----------------------------------|--------------------------------------|
 |----------------------------------|--------------------------------------|
 |--------------------------9-------|--------------------------------------|
 |-10-------9-------7-----------7---|-------7---9---10--------9--------7---|
 |------8-------8-------8-----------|--8-----------------8--------8--------|

|
| Gtr III
| W +Q. Q Q E
 
 |----------------------------------|--------------------------------------|
 |--5-------------------------------|-(5)------------8-------10-------12---|
 |--5-------------------------------|-(5)----------------------------------|
 |----------------------------------|----------------5--------7--------9---|
 |----------------------------------|--------------------------------------|
 |----------------------------------|--------------------------------------|

Verse
[G] PM PM PM PM PM PM
S S S S S S S S S S S S S S S S
 
 ||------------------------------------|
 ||o-----------------------------------|
 ||------------------------------------|
 ||------------------------------------|
 ||o-10---10---9---9---7---7-----------|
 ||-----0----0---0---0---0---0-7-0-7-0-|

|
| PM PM PM PM PM PM
| S S S S S S S S S S S S S S S S
 
 ||------------------------------------|
 ||o-----------------------------------|
 ||------------------------------------|
 ||------------------------------------|
 ||o-10---10---9---9---7---7-----------|
 ||-----0----0---0---0---0---0-7-0-7-0-|

PM PM PM PM
S S S S S S S S S S S S S S S S
 
 |-----------------------------------------|
 |-----------------------------------------|
 |-----------------------------------------|
 |--------------------------------------7--|
 |-10---10---9---9---7----7--9-10--9-10----|
 |----0----0---0---0---10------------------|

|
| PM PM PM PM
| S S S S S S S S S S S S S S S S
 
 |-----------------------------------------|
 |-----------------------------------------|
 |-----------------------------------------|
 |-----------------------------------------|
 |-10---10---9---9--------------7-----7-9--|
 |----0----0---0---0-8--7-8-10----10-------|

D.S. al Coda
PM PM PM PM PM PM PM PM PM[B5] [G5A5]
S S S S S S S S S S S S S S S S S S S S S S S S Q E E
 
 |-----------------------------------|-----------------------------||
 |-----------------------------------|----------------------------o||
 |-----------------------------------|-----------------------------||
 |-----------------------------------|------9----------------------||
 |-10---10---9---9---7---7-----------|-10-------10---9-10-9--5-7--o||
 |----0----0---0---0---0---0-7-0-7-0-|----0---0----0------7--3-5---||

|
| PM PM PM PM PM PM PM PM PM
| S S S S S S S S S S S S S S S S S S S S S S S S Q E E
 
 |-----------------------------------|-----------------------------||
 |-----------------------------------|----------------------------o||
 |-----------------------------------|-----------------------------||
 |-----------------------------------|------9----------------------||
 |-10---10---9---9---7---7-----------|-10-------10---9-10-9--5-7--o||
 |----0----0---0---0---0---0-7-0-7-0-|----0---0----0------7--3-5---||

Outro
&
Gtrs I, II
 
 PM--------------| PM----------------|

S S S S E S S S S E S S S S S S S S E S S S S E S S S S
 
 |-----------------------------|-----------------------------|
 |-----------------------------|-----------------------------|
 |-----------------------------|-----------------------------|
 |-----------------------------|-----------------------------|
 |---------------------2-2-3-3-|-2-2---------------------2-2-|
 |-0-0-0-0---0-0-0-0-----------|-----0-0---0-0-0-0---0-0-----|
 PM--------------|

S S S S S S S S E S S S S E S S S S S S S S S S S S S S S S
 
 |-----------------------------|------------------------------------|
 |-----------------------------|------------------------------------|
 |-----------------------------|------------------------------------|
 |-----------------------------|------------------------------------|
 |-3-3-2-2---------------------|-2--2-3-3-2-2----------0-0-0-0--2-2-|
 |---------0-0-0-0---0-0-0-0---|--------------3-3-3-3---------------|

|
| Gtr III
| W Q. Q Q E
 
 |-----------------------------|------------------------------------|
 |-----------------------------|--------------8-------10-------12---|
 |-----------------------------|------------------------------------|
 |-----------------------------|--------------5--------7--------9---|
 |-----------------------------|------------------------------------|
 |-----------------------------|------------------------------------|

S S S S S S S S S S S S S S S S S S S S S S S S S S S S S S S S
 
 |----------------------------------|-----------------------------------|
 |----------------------------------|-----------------------------------|
 |----------------------------------|-----------------------------------|
 |----------------------------------|-----------------------------------|
 |-3--3-3-3-3-3-3-3-3-3-3-3-2-2-3-3-|-0-0-3-3-2-2----------0-0-0-0--2-2-|
 |----------------------------------|-------------3-3-3-3---------------|

|
| Q Q Q E E E E E Q Q E
 
 |--------------------------7-------|-----------------------------------|
 |-8--------7-------5-----------5---|-----5---7---8-------10-------12---|
 |----------------------------------|-5---------------------------------|
 |----------------------------------|-------------5--------7--------9---|
 |-3--------------------------------|-----------------------------------|
 |----------------------------------|-----------------------------------|

H. Q
 
 PM--------------|

S S S S E S S S S E Q W
 
 |------------------------|------*|
 |------------------------|------*|
 |------------------------|------*|
 |------------------------|------*|
 |------------------------|------*|
 |-0-0-0-0---0-0-0-0------|------*|

Duration Legend
 
 ---------------
 W - whole; H - half; Q - quarter; E - 8th; S - 16th; T - 32nd; X - 64th; a - acciaccatura

+ - note tied to previous; . - note dotted; .. - note double dotted
Uncapitalized letters represent notes that are staccato (1/2 duration)
Irregular groupings are notated above the duration line
Duration letters will always appear directly above the note/fret number it represents the
duration for. Duration letters with no fret number below them represent rests. Multi-
bar rests are notated in the form Wxn, where n is the number of bars to rest for. Low
melody durations appear below the staff
Tablature Legend
 
 ----------------

h - hammer-on
p - pull-off
b - bend
pb - pre-bend
r - bend release (if no number after the r, then release immediately)
/\ - slide into or out of (from/to "nowhere")
s - legato slide
S - shift slide
<n> - natural harmonic
(n) - artificial harmonic
n(n) - tapped harmonic
~ - vibrato
tr - trill
T - tap
TP - trem. picking
PM - palm muting
\n/ - tremolo bar dip; n = amount to dip
\n - tremolo bar down
n/ - tremolo bar up
/n\ - tremolo bar inverted dip
= - hold bend; also acts as connecting device for hammers/pulls
<> - volume swell (louder/softer)
x - on rhythm slash represents muted slash
o - on rhythm slash represents single note slash
Misc Legend
 
 -----------

| - bar
|| - double bar
||o - repeat start
o|| - repeat end
*| - double bar (ending)
: - bar (freetime)
$ - Segno
& - Coda
Tempo markers - <E/E./Q/Q./H/H.> = BPM(8/16=s8/s16), where s8 = swing 8ths, s16 = swing 16ths

Important: The song above is NOT stored on the Chordie server. The original song is hosted at www.xguitar.com. Chordie works as a search engine and provides on-the-fly formatting. Chordie does not index songs against artists'/composers' will. To remove this song please click here.

Text color:
Chord color:
Chord grids: 
Font size:    
Page size: 

A5 B5 B5/F# C5 D5 E E5 G G5
Rate #3 of 4 versions

Login - add to songbook

SHARE PAGE  




You need to log in to post comments