Guitar Tabs, Chords and Lyrics
Major upgrade!! After one year development the new version of Chordie is now online! Please give feedback.


Lethe   Dark Tranquillity

 
 G 3----------2----------0----------0--2--0-----------0-----------0-]
 D 5----------3----------0-----------------------0-----------0------]
 A 5----------5----------1--------------------------1-----------1---]
 D 0----------0----------0------------------------------------------]

 


 


 part A:


 

 
 G [ ----------0 --------------------2-------------------0-------2-------0---
 D [ ------1-----1-------------3-------3-----------0------0-------0-------0--
 A [ ---1-----------1-------3-------------3------1----------1-------1-------1
 D [ 1--------------------3---------------------5----------------------------
 G ----------0--------------------2--------------------0-------2-------0---
 D ------1-----1-------------3------3------------0------0-------0-------0--
 A ---1----------1--------3-----------3--------1----------1-------1-------1
 D 1--------------------3---------------------5----------------------------
 G 3----------3--2--0----2----------2--0------0---------0--2--0---------0--
 D ---0----------------------0-------------1------0------------------0-----
 A ------1----------------------1--------------------1------------------1--
 D ------------------------------------------------------------------------
 G -----------3--------3--2--0----2---------2--0-------0--------0--2--0----
 D 0------------0--------------------0-------------1------0----------------
 A ---1------------1--------------------1--------------------1-------------
 D ------5-----------------------------------------------------------------
 G ------0------------]
 D 0----------0-------] Repeat part A.
 A ---1---------1-----]
 D ----------------5--]

 


 


 part B:


 

 
 G [ -------------------------------------------------------------------
 D [ 0--------0--------0--------0----0------1---------1---------1-------
 A [ ---1--------1--------1--------3-----------3---------3---------3----
 D [ ------5--------5--------5--------------------5---------5---------5-
 G ----------------------------------------------------------------------
 D 1--0--------0----------0---------0--------0---------------------------
 A ------3--------1----------1---------1--------3--1-----0---------0-----
 D ------------------5----------5---------5-----------------3--0-----3--0
 G ---------------------]
 D ---------------------] Repeat part B.
 A 0----------1----3----]
 D ---3--0------0-------]


Important: The song above is NOT stored on the Chordie server. The original song is hosted at www.xguitar.com. Chordie works as a search engine and provides on-the-fly formatting. Chordie does not index songs against artists'/composers' will. To remove this song please click here.

This song is displayed as text-only. Transposing and tuning is only available for chordpro-songs.
Rate #2 of 5 versions

Jango Player

Login - add to songbook

SHARE PAGE  




You need to log in to post comments