Guitar Tabs, Chords and Lyrics
Major upgrade!! After one year development the new version of Chordie is now online! Please give feedback.


There's No Way out of Here  David Gilmour

TAB
Chords used:
E5 022xxx G 320xxx
D5 xx023x A5 x022xx
B5 x244xx
Note: where there is an (F#), play the F# note on the low E string
Intro:
======
[E5] [(F#)] [G] [E5] [D5] [A5]  
 
 E:------------------------------------------------------------------
 B:---10b12--(12)r10---10--8--8--10b12--10--8--8--10b12--10----8-----
 G:------------------------------------------------------------------
 D:------------------------------------------------------------------ x2
 A:------------------------------------------------------------------
 E:------------------------------------------------------------------

Verse 1:
========
[E5] There's no[(F#)] way [G]out of here
when [E5]you come in you're [D5]in for [A5]good
[E5] There was [(F#)]no [G]promise made
the [E5]part you played, the [D5]chance you [A5]took[B5]
[E5] There are [(F#)]no [G]boundaries set
the [E5]time and yet you [D5]waste it [A5]still
keybds : [E5]E [(F#)] [G]D [E5]B E F# G F# E [D5]D [A5]C (drums enter)
(high pitch)
Verse 2: (same chords)
========
So it slips through your hands
like grains of sand you watch it go (fill 1)
There's no time to be lost
you'll pay the cost so get it right (fill 2)
(lead guitar doubles chords)
There's no way out of here
when you come in you're in for good
Solo 1: (same chords)
=======
 
 E:-----------------------------------------------------------------------------
 B:--15b17-----12--12--15b17r15--12--15--12-------------------------------------
 G:------------------------------------------14--s9--14b16--14--12------s0------
 D:-----------------------------------------------------------------------------
 A:-----------------------------------------------------------------------------
 E:-----------------------------------------------------------------------------

Chorus 1: (..)
=========
->
[E5] [(F#)] [G] [E5] [D5] [A5]  
 
 E:------------------------------------------------------------------
 B:---10b12--(12)r10---10--8--8--10b12--10--8--8--10b12--10----8-----
 G:------------------------------------------------------------------
 D:------------------------------------------------------------------ x1
 A:------------------------------------------------------------------
 E:------------------------------------------------------------------

Verse 3: (same chords as Verse 1)
========
There are no answers here
when you look out you don't see in (fill 3)
There was no promise made
the part you played, the chance you took (fill 4)
There's no way out of here
when you come in you're in for good
Solo 2:
=======
 
 E:-----------------------------------------------------------------------------
 B:--15b17-------s12--12--15b17r15--12------------------------------------------
 G:-------------------------------------14b16-----(14)b16r14--12--14------12----
 D:-------------------------------------------------------------------14--------
 A:-----------------------------------------------------------------------------
 E:-----------------------------------------------------------------------------

Chorus 2: (same as Chorus 1, but with:)
=========
... there are no answers (fill 5)
->
[E5] [(F#)] [G] [E5] [D5] [A5]  
 
 E:------------------------------------------------------------------
 B:---10b12--(12)r10---10--8--8--10b12--10--8--8--10b12--10----8-----
 G:------------------------------------------------------------------
 D:------------------------------------------------------------------ x1
 A:------------------------------------------------------------------
 E:------------------------------------------------------------------

Verse 4: (same chords as Verse 1)
========
There's no way out of here
when you come in you're in for good (fill 4)
There are no answers here
when you look out you don't see in (fill 2)
[E5] There was [(F#)]no [G]promise made
the [E5]part you played, the [D5]chance [A5] you took
Solo 3:
=======
 
 E:---------------------------------------14--15----15b17----r15--14------------
 B:--15b17----(17)r15--12--15------15b17------------------------------15--15b17-
 G:-----------------------------------------------------------------------------
 D:-----------------------------------------------------------------------------
 A:-----------------------------------------------------------------------------
 E:-----------------------------------------------------------------------------
 E:-----------------------------------------------------------------------------
 B:--15b17r15--12--12-----------------------------------------------------------
 G:---------------------------9--12--(9)--14--14b15r14--12--14--14-----12--11---
 D:-----------------------------------------------------------------------------
 A:-----------------------------------------------------------------------------
 E:-----------------------------------------------------------------------------
 E:-----------------------------------------------------------------------------
 B:------------------------------------------------8--10--10b12--r10------------
 G:--7--9br--p7--9-----9br--p7---------------7--9-------------------------------
 D:-------------------------------7--5--7s9-------------------------------------
 A:-----------------------------------------------------------------------------
 E:-----------------------------------------------------------------------------
 E:-----------------------------------------------------------------------------
 B:--15b17r15b17--15--15b17r15--------------------------------------------------
 G:-----------------------------14b16------(16)r14--12------14--12----9--7------
 D:-----------------------------------------------------14----------------------
 A:-----------------------------------------------------------------------------
 E:-----------------------------------------------------------------------------
 E:-----------------------------------------------------------------------------
 B:-----------------------------------------------------------------------------
 G:-----------------------------------------------------------------------------
 D:--7p5h7--5--2--5--2--------2-------------------------------------------------
 A:---------------------2--0--2-------------------------------------------------
 E:---------------------------0-------------------------------------------------

Verse 5: (backing singers)
========
There's no way out of here
when you come in you're in for good
 
 E:-------------------------------
 B:--15b17--(17)r15b17-----s0-----
 G:-------------------------------

There's no way out of here
when you come in you're in for good
 
 E:--17b19--(19)--17b19--(19)--(19)r17b19----s0--
 B:----------------------------------------------

There are no answers here
when you look out you don't see in
 
 E:-------------------------------------------------------
 B:--15b17r15b17--15--12--12--12--15b17--15--12-----------
 G:----------------------------------------------14--14b16

B:----
G:-s0-
There's no way out of here
when you come in you're in for good
Outro:
======
 
 E:-----------------------------------------------------10---10-----------------
 B:-----8--10--10b12-----r10--10--10b12r10--8----10b12------(12)-----r10p8--10--
 G:--9--------------------------------------------------------------------------
 D:-----------------------------------------------------------------------------
 A:-----------------------------------------------------------------------------
 E:-----------------------------------------------------------------------------
 E:-----------------------------------------------------------------------------
 B:--8--------------------------------------------------------------------------
 G:-----9p7---------------------------------------------------------------------
 D:----------7br-p5--7--5--2--0-----------2-----2--5--7br--5h7------------------
 A:------------------------------0--------2-------------------------------------
 E:---------------------------------3b----0-------------------------------------

fades out (too fast and quiet to make out last bit!)
Fills:
======
(fill 1)
 
 E:--------------

B:--10b12~~~~~--
 
 G:--------------

(fill 2)
 
 A:--------

E:--7s0---
(fill 3)
 
 E:-------------------

B:--15b17^^^^^^^^^^--
 
 G:---------W.B.------

(fill 4)
E:--17b19~~~~~---
 
 B:---------------

(fill 5)
 
 E:------------

B:--13~~~~~---
 
 G:------------


Important: The song above is NOT stored on the Chordie server. The original song is hosted at www.xguitar.com. Chordie works as a search engine and provides on-the-fly formatting. Chordie does not index songs against artists'/composers' will. To remove this song please click here.

Text color:
Chord color:
Chord grids: 
Font size:    
Page size: 

A5 B5 D5 E5 G
Rate #5 of 5 versions

Login - add to songbook

SHARE PAGE  




You need to log in to post comments