Guitar Tabs, Chords and Lyrics
Major upgrade!! After one year development the new version of Chordie is now online! Please give feedback.


I Kill Children   Dead Kennedys

 
 e-3---0---3--
 B-3---0---3--
 G-4---1---4--
 D-5---2---5--
 A-5---2---5--
 E-3---0---3--

 


 


 Main verse:


 

 
 e--------------
 B--------------
 G-3-3-3/-5-5-5-
 D-3-3-3/-5-5-5-
 A-1-1-1/-3-3-3-
 E--------------

 


 


 Bridge:


 

 
 e-3-3-3-3-1-1---------------1-1-3-
 B-3-3-3-3-1-1---------------1-1-3-
 G-4-4-4-4-2-2-3-3---3-3-3-3-2-2-4-
 D-5-5-5-5-3-3-3-3---3-3-3-3-3-3-5-
 A-5-5-5-5-3-3-1-1---1-1-1-1-3-3-5-
 E-3-3-3-3-1-1---------------1-1-3-
 ^------------^

 


 At The End Of The Bridge Play The 2nd Part Of


 It An Extra Time


 


 Interlude:


 

 
 e-3-3-3-3-6-6-6-6-
 B-3-3-3-3-6-6-6-6-
 G-4-4-4-4-7-7-7-7- X3
 D-5-5-5-5-8-8-8-8-
 A-5-5-5-5-8-8-8-8-
 E-3-3-3-3-6-6-6-6-
 e-6-6-6-6-8--8--8--8
 B-6-6-6-6-8--8--8--8
 G-7-7-7-7-9--9--9--9 X3
 D-8-8-8-8-10-10-10-10-
 A-8-8-8-8-10-10-10-10-
 E-6-6-6-6-8--8--8--8-


Important: The song above is NOT stored on the Chordie server. The original song is hosted at www.xguitar.com. Chordie works as a search engine and provides on-the-fly formatting. Chordie does not index songs against artists'/composers' will. To remove this song please click here.

This song is displayed as text-only. Transposing and tuning is only available for chordpro-songs.
Rate #1 of 1 versions

Login - add to songbook

SHARE PAGE  




You need to log in to post comments