Guitar Tabs, Chords and Lyrics
Major upgrade!! After one year development the new version of Chordie is now online! Please give feedback.


All I Want Is Everything  Def Leppard

Def Leppard - All I Want Is Everything
INTRO(x4)
 
 e------------------------------------------------------------------------------
 B------3-3-3-3---3-3-3-2-------------------------------------------------------
 G-----4-4-4-4---2-2-2-2--------------------------------------------------------
 D------------------------------------------------------------------------------
 A------------------------------------------------------------------------------
 E------------------------------------------------------------------------------

Main Riff
Bm A (X2) Bm E(Em) G A
 
 e--------------------------I------------0-------0-----------------------------
 B------3-3-3-3---3-3-3-2---I-----3-3-3----3-3-3--3-3-3-3--3-3-3-2-------------
 G-----4-4-4-4---2-2-2-2----I----4-4-4-4----4-4-4--4-4-4--2-2-2-2--------------
 D--------------------------I--------------------------------------------------
 A--------------------------I--------------------------------------------------
 E--------------------------I--------------------------------------------------

[Bm]I don't know how to[A] leave you
[Bm]And I don't know how to[A] stay
[Bm]I got things that I must[E(Em)] tell you
[G]That I don't know how to[A] say
[Bm]The man behind thes[A]e empty words
[Bm]Is crying out in sh[A]ame
[Bm]Holding on to this sinki[E(Em)]ng ship
[G]Where nothing else remai[A]ns
 
 ----CHORUS----

D A Em Bm (X2)
 
 e------------------0--0--0--0---------------------------------------------------
 B----------------3--3--2--3---3-------------------------------------------------
 G---------------4-4--2--2--4----44----------------------------------------------
 D-------------------------------------------------------------------------------
 A-------------------------------------------------------------------------------
 E-------------------------------------------------------------------------------

[D]All I want is [A]everything
[Em]Am I asking too[Bm] much
[D]All I want is [A]everything
[Em]Like a feel of [Bm]your touch
[C]But all I have are[G] yesterdays
[D]Tomorrow never comes
[Bm]It's hard to hold y[A]our head up
[Bm]When you're kneelin[A]g down to pray
[Bm]And talking don't come e[E(Em)]asy now
[G]When the words get in th[A]e way
[Bm]And if you could se[A]e what's goin' on
[Bm]Behind these privat[A]e eyes
[Bm]The truth would look so [E(Em)]easy now
[G]But I'm running out of l[A]ies
(CHORUS)
SOLO: (2 GUITARS)
Note: the two written notes are written at the same time in that the song goes.
GUITAR 1
[Bm] [Em] [Bm] [Em] [Bm] [Em] [Bm] [Em] [G] [A]  
 
 e-------------------------------------------------------------------------------
 B------3-3-3-3---3-3-3-2--------7-5-7(x14)then play--7-5-0----------------------
 G-----4-4-4-4---2-2-2-2---------------------------------------------------------
 D-------------------------------------------------------------------------------
 A-------------------------------------------------------------------------------
 E-------------------------------------------------------------------------------

GUITAR 2
 
 e-------------------------------------------------------------------------------
 B-------------------------------------------------------------------------------
 G-------------------4-2-----------4-2--------------------------4-2--------------
 D-----------------------4-2-4---------4-2------------0-2-4-2-4-----4-2-4-2------
 A-----------------------------------------2--4-2-4-2-----------------------2-2-4-0
 E-------------------------------------------------------------------------------

[D]You think the shadow of doubt is hangin'[A] over my head
It's just a[Em]n angel whose wings hide the [Bm]sun
[D]And it's myself I betray I cannot wish t[A]his away
[Em]Took my chance now the damage[Bm] is done
CHORUS
[D]All I want is [A]everything
[Em]Am I asking too[Bm] much
[D]All I want is [A]everything
[Em]Like a feel of [Bm]your touch
[C]But all I have are[G] yesterdays
[D]Tomorrow never comes

Important: The song above is NOT stored on the Chordie server. The original song is hosted at www.xguitar.com. Chordie works as a search engine and provides on-the-fly formatting. Chordie does not index songs against artists'/composers' will. To remove this song please click here.

Text color:
Chord color:
Chord grids: 
Font size:    
Page size: 

A Bm C D Em G
Rate #6 of 9 versions

Login - add to songbook

SHARE PAGE  



You need to log in to post comments