Guitar Tabs, Chords and Lyrics
Major upgrade!! After one year development the new version of Chordie is now online! Please give feedback.


Armageddon It  Def Leppard

Def Leppard - Armageddon it - hysteria and vault
Tabbed By: shifflett
Email: deflepp2184@aol.com
Tuning: Standard (E A D G B E)
This is an accoustic approach to the song for new beginners looking
for a fun def lepp song to play. Also, if you have any trouble
putting the notation to guitar just listen to the song to get the
feel for the rhythm and sound. Enjoy!
Key: /-slide up x-mute p-pull off
\-slide down r-release h-hammer on
Intro:
 
 E|------------------|------------------|------------------|------------------||
 B|--2/5-5-5-5-5\3---|----2-3-2-3/5-5---|---5-5-5-5-5\3----|---2-3-2-3-2-2/5--||
 G|--1/4-4-4-4-4\2---|----2-2-2-2/4-4---|---4-4-4-4-4\2----|---2-2-2-2-2-2/4--||
 D|------------------|------------------|------------------|------------------||
 A|------------------|------------------|------------------|------------------||
 E|------------------|------------------|------------------|------------------||
 E|------------------|------------------|------------------|------------------||
 B|---5-5-5-5\3------|-2-3-2-3/5-5------|----5-5-5-5-5\2---|--3-2-3-2-3-2-2/5-||
 G|---4-4-4-4\2------|-2-2-2-2/4-4------|----4-4-4-4-4\2---|--2-2-2-2-2-2-2/4-||
 D|------------------|------------------|------------------|------------------||
 A|------------------|------------------|------------------|------------------||
 E|------------------|------------------|------------------|------------------||
 E|------------------|------------------|------------------|---------||
 B|---5-5-5-5\2------|---3-2-3-2-3/5-5--|---5-5-5-5-5\333--|--2------||
 G|---4-4-4-4\2------|---2-2-2-2-2/5-4--|---4-4-4-4-4\222--|--2--2---||
 D|------------------|------------------|------------------|-----2---||
 A|------------------|------------------|------------------|---------||
 E|------------------|------------------|------------------|---------||

Verse:
E|-----||
B|-----||
G|-2-2-||
D|-2-2-||
A|-----||
E|-----||
Ya better [E]come inside when you're ready t[D]a[DDD]
But no [E]chance if ya don't wanna dance[DDD] [D] [A] [AAA]
Ya like [E]four letter words when you're ready ta[D] [DDD]
But then ya [E]won't cuz ya know that you can[DDD] [D] [A] [AAA]
You got it[E],(Fill 1) but are you g[D]ettin' it[A]?
(you have the option to keep playing on here, as is,
or you can play a fill. At any rate, it sounds really good with
two guitars.)
Fill 1
 
 E|------------------|------------------|------------------|------------------||
 B|-x--5--xx--5--xx--|-3--xx-------x----|--5--xx--5--xx----|--3--xx-----------||
 G|-x--4--xx--4--xx--|-2--xx--2-0--x----|--4--xx--4--xx----|--2--xx--2-0------||
 D|-x--2--xx--2--xx--|-0--xx--2-0--x----|--2--xx--2--xx----|--0--xx--2-0------||
 A|------------------|--------0-0-------|------------------|---------0-0------||
 E|------------------|------------------|------------------|------------------||

[E]You say that love is won when ya get some[D] [DDD]
But then your [E]finger won't trigger the [DDD]gun[D] [A] [AAA]
You know ya, ya can't stop it, so don't rock it, you know ya got it
 
 E|------------------|------------------|------------------|------------------||
 B|5-xx--5--xx-5--x--|5-xx--5--xx-5--x--|5-xx--5--xx-5--0--|---333--2---------||
 G|4-xx--4--xx-4--x--|4-xx--4--xx-4--x--|4-xx--4--xx-4--0--|---222--2--2------||
 D|2-xx--2--xx-2--x--|2-xx--2--xx-2--x--|2-xx--2--xx-2--0--|-----------2------||
 A|------------------|------------------|------------------|------------------||
 E|------------------|------------------|------------------|------------------||

Pre-chorus:
Hey, but are you getting it? Oh, really getting it? Oh, come get it from me!
[B5] [B5] [B5] [B5] [B5] [B5] [B] [B] [B] [B] [B] [B] [B] [B] [B] [B] [C]  
 
 E|------------------|------------------|-------------------||
 B|------------------|------4-----------|-----------------1-||
 G|-4----------------|------4-----------|-------------------||
 D|-4----------------|------4-----------|-----------------2-||
 A|-2----------------|------------------|-----------------3-||
 E|------------------|------------------|-------------------||

Chorus:
[C]Gimme [G]all of your [D]lovin'![C]
[C]Gimme [G]all of that [D]you got![C]
[C]Every [G]bit of you [D]lovin'![C]
[C]Never [G]wanna [D]stop![D]
[D]But are you [E]get[E]ting [E]it!
(Once again, you can play on here, as is, or you
can play another fill with the chorus, or make it
sound really great with two guitars.)
Chorus (Fill 2)
[C] [G] [D] [C] [G] [D]  
 
 E|------------------|-----2------------|------------------|------------------||
 B|------3-------3---|---3--------3-----|-----3--------3---|---3-----3--------||
 G|----0---0---0-----|-2--------2-----2-|---0---0----0-----|-2---2-----2----0-||
 D|----------------0-|--------2-----0---|----------------0-|------------------||
 A|--3---------------|------------------|-3----------------|-------0------2---||
 E|----------3-------|------------------|----------3-------|------------------||

[C] [G] [D] [C] [G] [D]  
 
 E|------------------|------2-----------|------------------|------------------||
 B|------3-------3---|----3-------3-----|------3-------3---|---3-----3--------||
 G|----0---0---0-----|--2-------2-----2-|----0---0---0-----|-2---2-----2------||
 D|----------------0-|--------2-----0---|----------------0-|----------------2-||
 A|--3---------------|------------------|--3---------------|-------0------2---||
 E|----------3-------|------------------|----------3-------|------------------||

[E] [E] [E]  
 
 E|----------||
 B|----------||
 G|----------||
 D|--2-2-2---||
 A|--2-2-2---||
 E|--0-0-0---||

(Slap the body to keep the beat with the ending of the chorus)
Armageddon it! Oh, really gettin' it? Yes, armageddon it! C'mon get it!
 
 E|------------------|------------------|------------------|------------------||
 B|-2/5-5-5-5-5\2----|--3-2-3-2-3/5-5---|--5-5-5-5-5\2-----|-3-2-3-2-3-2-2/5--||
 G|-1/4-4-4-4-4\2----|--2-2-2-2-2/4-4---|--4-4-4-4-4\2-----|-2-2-2-2-2-2-2/4--||
 D|------------------|------------------|------------------|------------------||
 A|------------------|------------------|------------------|------------------||
 E|------------------|------------------|------------------|------------------||
 E|------------------|--------||
 B|---5-5-5-5\333----|--2-----||
 G|---4-4-4-4\222----|--2--2--||
 D|------------------|-----2--||
 A|------------------|--------||
 E|------------------|--------||

verse:
 
 E|------||
 B|------||

G|-2-2--||
D|-2-2--||
 
 A|------||
 E|------||

Ya try [E]comin' on when ya need some[D] [DDD]
But then ya [E]don't cuz ya already did[DDD] [D] [A] [AAA]
Yeah, ya [E]jangle your jewels while you're shakin' ya[D] [DDD]
And drive the [E]pretty boys outta their heads[DDD] [D] [A] [AAA]
You got it[E],(fill 1, optional) but are you g[D]ettin' it[A]?
Fill 1
 
 E|------------------|------------------|------------------|------------------||
 B|-x--5--xx--5--xx--|-3--xx-------x----|--5--xx--5--xx----|--3--xx-----------||
 G|-x--4--xx--4--xx--|-2--xx--2-0--x----|--4--xx--4--xx----|--2--xx--2-0------||
 D|-x--2--xx--2--xx--|-0--xx--2-0--x----|--2--xx--2--xx----|--0--xx--2-0------||
 A|------------------|--------0-0-------|------------------|---------0-0------||
 E|------------------|------------------|------------------|------------------||

[E]You flash your bedroom eyes like a jumpin' jack[D] [DDD]
Then play it [E]pretty with a pat on the back[DDD] [D] [A] [AAA]
You know ya, ya can't stop it, so don't rock it, you know ya got it
 
 E|------------------|------------------|------------------|------------------||
 B|5-xx--5--xx-5--x--|5-xx--5--xx-5--x--|5-xx--5--xx-5--0--|---333--2---------||
 G|4-xx--4--xx-4--x--|4-xx--4--xx-4--x--|4-xx--4--xx-4--0--|---222--2--2------||
 D|2-xx--2--xx-2--x--|2-xx--2--xx-2--x--|2-xx--2--xx-2--0--|-----------2------||
 A|------------------|------------------|------------------|------------------||
 E|------------------|------------------|------------------|------------------||

Pre-chorus:
Hey, but are you getting it? Oh, really getting it? Oh, come get it from me!
[B5] [B5] [B5] [B5] [B5] [B5] [B] [B] [B] [B] [B] [B] [B] [B] [B] [B] [C]  
 
 E|------------------|------------------|-------------------||
 B|------------------|------4-----------|-----------------1-||
 G|-4----------------|------4-----------|-------------------||
 D|-4----------------|------4-----------|-----------------2-||
 A|-2----------------|------------------|-----------------3-||
 E|------------------|------------------|-------------------||

Chorus:(chorus fill 2 optional)
[C]Gimme [G]all of your [D]lovin'![C]
[C]Gimme [G]all of that [D]you got![C]
[C]Every [G]bit of you [D]lovin'![C]
[C]Never [G]wanna [D]stop![D]
[D]But are you [E]get[E]ting [E]it!
Chorus (Fill 2)
[C] [G] [D] [C] [G] [D]  
 
 E|------------------|-----2------------|------------------|------------------||
 B|------3-------3---|---3--------3-----|-----3--------3---|---3-----3--------||
 G|----0---0---0-----|-2--------2-----2-|---0---0----0-----|-2---2-----2----0-||
 D|----------------0-|--------2-----0---|----------------0-|------------------||
 A|--3---------------|------------------|-3----------------|-------0------2---||
 E|----------3-------|------------------|----------3-------|------------------||

[C] [G] [D] [C] [G] [D]  
 
 E|------------------|------2-----------|------------------|------------------||
 B|------3-------3---|----3-------3-----|------3-------3---|---3-----3--------||
 G|----0---0---0-----|--2-------2-----2-|----0---0---0-----|-2---2-----2------||
 D|----------------0-|--------2-----0---|----------------0-|----------------2-||
 A|--3---------------|------------------|--3---------------|-------0------2---||
 E|----------3-------|------------------|----------3-------|------------------||

[E] [E] [E]  
 
 E|----------||
 B|----------||
 G|----------||
 D|--2-2-2---||
 A|--2-2-2---||
 E|--0-0-0---||

(Once again, slap the body with the beat)
Armadeddon it! Oh, really gettin' it? Yes, armageddon it! C'mon get it!
 
 E|------------------|------------------|------------------||
 B|------------------|------------------|--3-r-3-r-3-------||
 G|---1-r-1-r-1-r----|---1-r-1-r-1------|--2-r-2-r-2---2---||
 D|---2-r-2-r-2-r----|---2-r-2-r-2------|--------------2---||
 A|---2-r-2-r-2-r----|---2-r-2-r-2------|------------------||
 E|------------------|------------------|------------------||
 E|------------------|------------------||
 B|------------------|---333--2---------||
 G|---11----11-------|---222--2-2-------||
 D|---22----22-------|----------2-------||
 A|---22----22-------|------------------||
 E|------------------|------------------||

Solo:
(At this point you can choose to play the solo, transcribed
as follows, or you can play on through it with fill 3
below. However, once again, it still sounds
really great with 2 guitars.)
(Fill 3)
 
 E|------------------|------------------|------------------|| |------------------||
 B|5-xx--5--xx-5--x--|5-xx--5--xx-5--x--|5-xx--5--xx-5--x--|| |---333--2---------||
 G|4-xx--4--xx-4--x--|4-xx--4--xx-4--x--|4-xx--4--xx-4--x--|| x 7 |---222--2--2------||
 D|2-xx--2--xx-2--x--|2-xx--2--xx-2--x--|2-xx--2--xx-2--x--|| |-----------2------||
 A|------------------|------------------|------------------|| |------------------||
 E|------------------|------------------|------------------|| |------------------||

(solo)
 
 E|----------|------------------------------|---------------------------------------||
 B|--555-5-5-|---5-4-5-7-----5---------5----|----------------2------3--5----333-2---||
 G|----------|-4----------6---------4-------|-----1-----2-2-----2-----------222-2-2-||
 D|----------|-------------------7--------5-|--2-----2----------------------------2-||
 A|----------|------------------------------|---------------------------------------||
 E|----------|------------------------------|---------------------------------------||
 E|-12p-11p-0h-11p-9p-0h-9p-7p-0h-7p-5p-0h-5p-4p0-|-5--7--5-----------|------------------||
 B|-----------------------------------------------|---------/10-9---5-|-55----5----7/9-9-||
 G|-----------------------------------------------|-------------------|-----4---4--------||
 D|-----------------------------------------------|-------------------|------------------||
 A|-----------------------------------------------|-------------------|------------------||
 E|-----------------------------------------------|-------------------|------------------||
 E|------------------||
 B|---333--2---------||
 G|---222--2--2------||
 D|-----------2------||
 A|------------------||
 E|------------------||

Bridge:
(Just play through the bridge with the rhythm)
take it, take it, take it from me I got an itchy finger followin' me
 
 E|------------------|------------------|------------------|------------------||
 B|------------------|------------------|------------------|------------------||
 G|--2---2----2----2-|--2---2---2---2---|---2----2----2----|--2----2---2----2-||
 D|--2---2----2----2-|--2---2---2---2---|---2----2----2----|--2----2---2----2-||
 A|------------------|------------------|------------------|------------------||
 E|------------------|------------------|------------------|------------------||

I got an itchy finger followin' me
 
 E|------------------|------------------||
 B|------------------|------3---3----2--||
 G|--2---2----2----2-|--2---2---2----2--||
 D|--2---2----2----2-|--2---------------||
 A|------------------|------------------||
 E|------------------|------------------||

Pull it, pull it, c'mon trigger the gun!
 
 E|------------------|------------------||
 B|------------------|-----3---3------2-||
 G|--2---2----2----2-|--2--2---2------2-||
 D|--2---2----2----2-|--2---------------||
 A|------------------|------------------||
 E|------------------|------------------||

Cuz the best is yet to come, I say cuz the best is yet to come
 
 E|------------------|------------------|------------------|------------------||
 B|------------------|----3---33--------|------------------|--------3---33----||
 G|-111--1--1---1----|-1--2---22---2----|-2-2--111---1---1-|--1--1--2---22--2-||
 D|-222--2--2---2----|-2-----------2----|-2-2--222---2---2-|--2--2----------2-||
 A|-222--2--2---2----|-2----------------|------222---2---2-|--2--2------------||
 E|------------------|------------------|------------------|------------------||

Pre-chorus:
But are you getting it? Oh, really getting it? Yeah, are you getting it?
[B5] [B5] [B5] [B5] [B5] [B5] [B5] [B5] [B5] [B5] [B5] [B5] [B] [B] [B]  
 
 E|------------------|-------------------|------------------||
 B|------------------|-------------------|-----------4------||
 G|-4----------------|-------------------|-----------4------||
 D|-4----------------|-------------------|-----------4------||
 A|-2----------------|-------------------|------------------||
 E|------------------|-------------------|------------------||

Oh, really getting it? Oh, come get it from me!
[B] [B] [B] [B] [B] [B] [B] [B] [B] [B] [B] [B] [B] [B] [B] [C]  
 
 E|------------------|-----------------------------||
 B|------------------|--------------------------1--||
 G|------------------|-----------------------------||
 D|------------------|--------------------------2--||
 A|------------------|--------------------------3--||
 E|------------------|-----------------------------||

Chorus:(fill 2 optional)
[C]Gimme [G]all of your [D]lovin'![C]
[C]Gimme [G]all of that [D]you got![C]
[C]Every [G]bit of you [D]lovin'![C]
[C]Never [G]wanna [D]stop! [D]Oh!
[D]Are you get[C]ting it? [G] [D] Oh!
[D]Oh, really get[C]ting it? [G] [D] Oh!
[D]Are you ge[C]tting it?[G] [D]
[D]Oh! [C]Live a bit![G] [D] Whoa!
Chorus (Fill 2)
[C] [G] [D] [C] [G] [D]  
 
 E|------------------|-----2------------|------------------|------------------||
 B|------3-------3---|---3--------3-----|-----3--------3---|---3-----3--------||
 G|----0---0---0-----|-2--------2-----2-|---0---0----0-----|-2---2-----2----0-||
 D|----------------0-|--------2-----0---|----------------0-|------------------||
 A|--3---------------|------------------|-3----------------|-------0------2---||
 E|----------3-------|------------------|----------3-------|------------------||

[C] [G] [D] [C] [G] [D]  
 
 E|------------------|------2-----------|------------------|------------------||
 B|------3-------3---|----3-------3-----|------3-------3---|---3-----3--------||
 G|----0---0---0-----|--2-------2-----2-|----0---0---0-----|-2---2-----2------||
 D|----------------0-|--------2-----0---|----------------0-|----------------2-||
 A|--3---------------|------------------|--3---------------|-------0------2---||
 E|----------3-------|------------------|----------3-------|------------------||

[E] [E] [E]  
 
 E|----------||
 B|----------||
 G|----------||
 D|--2-2-2---||
 A|--2-2-2---||
 E|--0-0-0---||

[CCC] [G] [D]  
Live a bit!
[CCC] [GD] [DDD] [D] [D] [D] [C]  
[C]Gimme [G]all of your [D]lovin'![C]
[C]Gimme [G]all of that [D]you got![C]
[C]Every [G]bit of you [D]lovin'![C]
[C]Never [G]wanna [D]stop![D]
[C] Gimme all of your lovin!

Important: The song above is NOT stored on the Chordie server. The original song is hosted at www.xguitar.com. Chordie works as a search engine and provides on-the-fly formatting. Chordie does not index songs against artists'/composers' will. To remove this song please click here.

Text color:
Chord color:
Chord grids: 
Font size:    
Page size: 

A B B5 C D E G
Rate #1 of 1 versions

Jango Player

Login - add to songbook

SHARE PAGE  




You need to log in to post comments