Guitar Tabs, Chords and Lyrics
Major upgrade!! After one year development the new version of Chordie is now online! Please give feedback.


A Shocking Lack Thereof  dEUS

tab by Avi & Stewart
the whole song is...
[C] [/] [Dm]  
the main riff is -
 
 e|-------------|
 B|-------------|
 G|------7---5--|
 D|--5-----7----|
 A|----5--------|
 E|-------------|

at 1:12 there?s -
 
 e|----------------|
 B|----------------|
 G|-10v-9v-10v-9v--|
 D|----------------|
 A|----------------|
 E|----------------|

at 2:08 - 2:18 there?s this (fast) -
 
 e|-------------|
 B|-------------|
 G|-------7---9-|
 D|---7-5---7---|
 A|-5-----------|
 E|-------------|

through the whole song the bass is playing -
 
 G|-----|-----|
 D|-----|-----|

A|-0-3-|-3/5-|
 
 E|-----|-----|

and that I guess would be all for this song...

Important: The song above is NOT stored on the Chordie server. The original song is hosted at www.xguitar.com. Chordie works as a search engine and provides on-the-fly formatting. Chordie does not index songs against artists'/composers' will. To remove this song please click here.

Text color:
Chord color:
Chord grids: 
Font size:    
Page size: 

C Dm
Rate #3 of 3 versions

Login - add to songbook

SHARE PAGE  



You need to log in to post comments