Guitar Tabs, Chords and Lyrics
Major upgrade!! After one year development the new version of Chordie is now online! Please give feedback.


Put the Freaks Up Front  dEUS

tab by Avi
Intro riff -
 
 e|---------------------------|
 B|---------------------------|
 G|-0h12\6-6-6--6-6-6-5-6-5\3-|
 D|---------------------------|
 A|---------------------------|
 E|---------------------------|

the chords are -
[F#m] [Em]  
 
 e|-----------|----------|
 B|-----------|----------|
 G|-11--------|-9--------|
 D|-11-(or)-4-|-9-(or)-2-|
 A|-9-------4-|-7------2-|
 E|---------2-|--------0-|

first verse main riff (with very "big" distortion) -
 
 e|--4/5--5--|
 B|--5/6--6--|
 G|--6/7--7--|
 D|--6/7--7--|
 A|----------|
 E|----------|

Verse -
___________________________
Dm Bb |and every second time Gm |
 
 e|--5--|--6--| e|--3--|
 B|--6--|--6--| B|--3--|
 G|--7--|--7--| G|--3--|
 D|--7--|--8--| D|--5--|
 A|--5--|--8--| A|--5--|
 E|-----|--6--| E|--3--|

Chorus -
_________________________
Bm G |and every second time Em |
 
 e|--2--|--3--| e|--0--|
 B|--3--|--3--| B|--0--|
 G|--4--|--4--| G|--0--|
 D|--4--|--5--| D|--2--|
 A|--2--|--5--| A|--2--|
 E|-----|--3--| E|--0--|

Bridge ("come and feel what...") -
[F#] [Dm]  
 
 e|--2--|--5--|
 B|--2--|--6--|
 G|--3--|--7--|
 D|--4--|--7--|
 A|--4--|--5--|
 E|--2--|-----|

Outro -
a few times the same as Intro and then...
 
 e|------------|
 B|------------|

G|-0h12/6-6-6-|
 
 D|------------|
 A|------------|
 E|------------|

[Dm]So you're suffering, I [Dm]know it hurts a lot if it's the [Bb]first time.
[Dm]Whenever I begin, make [Dm]sure to keep my empathy in[Bb]side.[Gm]
[Dm]The harder that it gets, the [Dm]more the company will do you [Bb]all in.
[Dm]Here comes another hit. This isn't dying, it's j[Dm]ust a slow way of
[Bb]falling[Gm]
[Bm]You place your frown [Bm]heavily down on [G]me and
and [Bm]try make me weak, [Bm]too lame to speak, [G]I[Em]
and all the rest of the song is the same except for the bridge...
[F#]Come and feel what it [Dm]does to me, [F#]so much more than [Dm]fantasy
[F#]put your panic on [Dm]hold, [F#]amplify your [Dm]very soul and keep breathing.[Dm]

Important: The song above is NOT stored on the Chordie server. The original song is hosted at www.xguitar.com. Chordie works as a search engine and provides on-the-fly formatting. Chordie does not index songs against artists'/composers' will. To remove this song please click here.

Text color:
Chord color:
Chord grids: 
Font size:    
Page size: 

Bb Bm Dm Em F# F#m G Gm
Rate #4 of 8 versions

Login - add to songbook

SHARE PAGE  




You need to log in to post comments