Guitar Tabs, Chords and Lyrics
Major upgrade!! After one year development the new version of Chordie is now online! Please give feedback.


Via  dEUS

Trans. by Omar Kamel & Avi
Intro -
_________ ________
/ twice \ / twice \ C
 
 e|-----------|---|----|----------|--0--|
 B|-----------|-5-|----|----------|--1--|
 G|-----------|---|-5v-|----------|--0--|
 D|------4vib-|---|----|-----4vib-|--2--|
 A|-----------|---|----|----------|--3--|
 E|-/3-3------|---|----|-/3-3-----|-----|

Verse -
[C] [G] [D] [F#]  
 
 e|------|------|------|------|
 B|------|------|------|------|
 G|------|--12--|------|--11--|
 D|--10--|--12--|--12--|--11--|
 A|--10--|--10--|--12--|--9---|
 E|--8---|------|--10--|------|

Chorus -
[G] [D] [C] [G]  
 
 e|---|---|---|---|-----------|-----------|
 B|---|-7-|-8-|---|-----------|-----------|
 G|-7-|---|---|-7-|-----------|-----------|
 D|-0-|---|---|---|-----------|-----------|
 A|---|---|---|---|---5-4-----|---5-4-2-2-|
 E|---|---|---|---|-3-----5-5-|-3---------|

_________ _______
G D C G / twice \ / twice \
 
 e|---|---|---|---|-----------|---------|-----|
 B|---|-7-|-8-|---|-----------|---------|-----|
 G|-7-|---|---|-7-|-----------|---------|-----|
 D|-0-|---|---|---|-----------|---------|-----|
 A|---|---|---|---|---5-4-----|---5-4---|-----|
 E|---|---|---|---|-3-----5-5-|-3-----5-|--3--|

At (01:38-01:49,02:33-02:44,3:08-end)there?s this on classic guitar -
 
 e|------------------------------|
 B|--------3---------3---------3-|
 G|---4---------4---------4------|
 D|-5---5-----5---5-----5---5----|
 A|------------------------------|
 E|------------------------------|

this at 2:15 -
 
 e|--------------|
 B|--------------|
 G|--------------|
 D|-0-2-4-2-4-5v-|
 A|--------------|
 E|--------------|

this at 2:22 -
 
 e|-------|--------------|
 B|-------|--------------|
 G|-------|--------------|
 D|-2/4/5-|-4/5/7-5-4-2v-|
 A|-------|--------------|
 E|-------|--------------|

Bridge -
[G] [/] [D] [/] [G] [/] [D]  
then...
[C]  
Outro -
_______
/repeat \
 
 e|---------|----|
 B|---------|----|
 G|---------|----|
 D|---------|----|
 A|---5-4---|----|
 E|-3-----5-|-3v-|


Important: The song above is NOT stored on the Chordie server. The original song is hosted at www.xguitar.com. Chordie works as a search engine and provides on-the-fly formatting. Chordie does not index songs against artists'/composers' will. To remove this song please click here.

Text color:
Chord color:
Chord grids: 
Font size:    
Page size: 

C D F# G
Rate #0 of 4 versions

Jango Player

Login - add to songbook

SHARE PAGE  




You need to log in to post comments