Guitar Tabs, Chords and Lyrics
Server problems seems to be fixed. Chordie has been experiencing problems with songs disappearing. These issues now seems to be fixed, but still verifying the fix. If you find anything strange, please email admin@chordie.com.


Walkampf  Die Toten Hosen

 
 -------------------------------------------------------------------------------

Walkampf - Die Toten Hosen
 
 ---------------------------------------------------------------------

Tabbed by: Schleichi
Email: Lemmyfredericksen
Tuning:standard
Erste gitarre spielt nur akkorde, 2 gitarre ist weiter unten separat notiert
Ich bin s[F]chweißgebadet aufgewacht nach e[B]iner Horrorn[F]acht
sowas bl[F]ödes hab ich noch nie geträumt
ich habe r[B]ichtig Panik ge[C]habt
Denn e[a]s war so ich s[B]tand am Strand und [C]vor mir lag ein [F]Wal
Er l[F]ebte noch ich war allein es [B]war so eine [C]Qual
I[B]ch bin nicht der s[F]tärkste das Ti[C]er war ton[F]nenschwer
Und die W[a]ellen haben ge[B]rufen schieb den W[C]al zurück ins M[F]eer
Schieb den [F]Wal Schieb den W[F]al Schieb den [B]Wal zurück ins Me[F]er
Schieb den Wal Schieb den Wal Schieb den Wal zurück ins Meer
nur eine gitarre(verzerrt)
[F]Also hab ich es noch m[F]al versucht noch m[B]al mit ganzer [F]Kraft
Die [F]Möwen schrieen immer mehr wi[B]eder nicht ge[C]schafft
B (+2.gitarre) F C F
Da fuhr ein Greenpeace-Schiff vorbei ich dachte Gott sei Dank
ich hab gebr[a]üllt und wie wild gew[B]unken und dann sah ic[C]h wie
es ver[F]sank
Schieb den W[F]al Schieb den W[F]al Schieb den W[B]al zurück ins M[F]eer
Schieb den Wal Schieb den Wal Schieb den Wal zurück ins Meer
(1:43)
uhuhuhuh..... G D C G D
[G] [C] [D] [G] [C]  
(beide gitarren powerchords)
[G]Mir kamen schon die Tränen weil i[C]ch so hilflos w[G]ar
[G]Der Wal lag unverändert da es gi[C]ng mir tierisch na[D]h
Ich h[C]ab ihn sogar ang[G]efleht mach dich bi[D]tte nicht so s[G]chwer
h C
Und die Sonne schrie nun mach schon
schieb den W[D]al zurück ins M[G]eer
(sehr weit unten hab ich noch den dudelsack notiert)
[G]Am nächsten Morgen hatte ich Muskelkater
ich sc[C]hleppte mich ins [G]Bad
Ich dr[G]ehte schnell die Dusche auf wie [C]gut mir das jetzt t[D]at
Da hö[C]rte ich meine Fre[G]undin sie s[D]chrie von irgendwo h[G]er
h C D G
Was tust du unter der Dusche? Schieb den Wal zurück ins Meer
[G]Schieb den Wal Schieb den W[G]al Schieb den W[C]al zurück ins M[G]eer
Schieb den Wal Schieb den Wal Schieb den Wal zurück ins Meer
Schieb den Wal Schieb den Wal
Schieb den Wal zurück ins Meer
Schieb den Wal Schieb den Wal
Schieb den scheiß Wal zurück ins Meer
2.Gitarre (1.Strophe)
Ganze Akkorde da wo sie vorkommen als arpeggien spielen, also nicht unbedingt klingen lassen,
weil das schon die erste gitarre macht.
 
 e--------------5---------------8---------------------|
 H--------------6--------------10---------------------|

Ich bin schweißgebadet aufgewacht
 
 e------------6---------------------------------------|
 H------------6--------------------10-----------------|
 G------------7---------------10----------------------|
 D------------8-----------10--------------------------|
 A------------8---------------------------------------|
 E------------6---------------------------------------|

nach einer Horrornacht
 
 e------8---------------6----5------------------------|
 H-------------------------------6---1----------------|

sowas blödes hab ich noch nie geträumt
 
 e-------------------------3--------------------------|
 H-------------3-----------5--------------------------|
 G----------3--------------5--------------------------|
 D-------------------------5--------------------------|
 A----------------------------------------------------|

ich habe richtig Panik gehabt
 
 e-----5------8-------6-------------------------------|
 H-----5--5-----------6----6--------------------------|
 G-----5--------------7--------7----------------------|
 D-----7--------------8-------------------------------|
 A-----7--------------8-------------------------------|

Denn es war so ich stand am Strand
 
 e----8-----8-----------------------------------------|
 H----9-----------11-10-------------------------------|
 G----9----------------10-----------------------------|
 D---10------------------10---------------------------|
 A---10-----------------------------------------------|

und vor mir lag ein Wal
 
 e--------------------8-------------------------------|
 H-------------------10-------------------------------|
 g-------------------10-------------------------------|
 D----------------------------------------------------|

Er lebte noch ich war allein es war so eine Qual
 
 e--------6-------------------8---------------12--10---8--5----|
 H-----------------------------------------8--13--11--10--6----|

Ich bin nicht der stärkste das Tier war tonnenschwer
 
 e---------8------------8-10-----------------------------------|
 H--------10-----------------6------------8h10p8-----10--------|
 G--------------------------------------------------------10---|
 D-------------------------------------------------------------|

Und die Wellen haben gerufen schieb den Wal zurück ins Meer
 
 e----------------5-----8--------------------------------------|
 H-------10-----------------6----------------------------------|
 G-------12p10-------------------------------------------------|
 D-------10----------------------------------------------------|
 A-------------------------------------------------------------|

Schieb den Wal Schieb den Wal
 
 e-----------3-----3-----6----5--------------------------------|
 H-------3h6---3h6-----3---------------------------------------|
 G------5------------------------------------------------------|
 D-------------------------------------------------------------|

Schieb den Wal zurück ins Meer
 
 e------8-----6---6--------------------------------------------|
 H-----10-----8---5--------------------------------------------|
 G-------------------------------------------------------------|
 D-10----------------------------------------------------------|
 A-------------------------------------------------------------|

Schieb den Wal Schieb den Wal
 
 e-----------3-----3-------------------------------------------|
 H-------3h6---3h6-----3--6--6-6-------------------------------|
 G------5----------------------5-------------------------------|
 D-------------------------------------------------------------|

Schieb den Wal zurück ins Meer
Duddelsack (2:36)
 
 H---------------8-----------------8-----------|
 G---------------7-----------------7h9p7-------|
 D---------------------------------------------|
 A---------------------------------------------|

Am nächsten Morgen hatte ich Muskelkater
 
 H--------------------------------|
 G-------5------------------------|
 D-------5----------------5-------|
 A------------------------5-------|

ich schleppte mich ins Bad
 
 H------8-----------------8------------------------------------|
 G------7-----------------7h9p7----------5-----------------7---|
 D---------------------------------------5-----------------7---|
 A-------------------------------------------------------------|

Ich drehte schnell die Dusche auf wie gut mir das jetzt tat
 
 e----------------------------------------------------------10-|
 H----8----------------------------10-------------8--10h12-----|
 G----5----------------7------------7--------------------------|
 D---------------------5---------------------------------------|
 A-------------------------------------------------------------|

Da hörte ich meine Freundin sie schrie von irgendwo her
 
 e----(7)-------------------------------------------------------|
 H-----7------------------8----------------10-h---12------10p8--|
 G-----7------------------9----------------11-------------------|
 D-----------------------10----------------12-------------------|
 A--------------------------------------------------------------|

Was tust du unter der Dusche? Schieb den Wal zurück ins Meer
 
 e---10-----7-7-10p7-------10--------7-7-10-7--------|
 H-----------8------------------------8--------------|
 G---------------------------------------------------|

Schieb den Wal Schieb den Wal
 
 e--10-------------------------------------------|
 H------------10-8h10-8h10-----------------------|
 G-------------------------9---7-----------------|

Schieb den Wal zurück ins Meer
 
 e---10-----7-7-10p7-------10--------7-7-10-7--------|
 H-----------8------------------------8--------------|
 G---------------------------------------------------|

Schieb den Wal Schieb den Wal
 
 e---10-----------------------------------------|
 H-------------10-8h10-8h10---------------------|
 G---------------------------9--12--------------|

Schieb den Wal zurück ins Meer
ps. ich wär euch verdammt dankbar wenn ihr dieses ding mal bewertet. ob positiv oder negativ is mir egal.
hat mich 8 stunden gekostet, und ausserdem sind es die einzigen walkampftabs im internet. danke.
mfg.
schleichi

Important: The song above is NOT stored on the Chordie server. The original song is hosted at www.xguitar.com. Chordie works as a search engine and provides on-the-fly formatting. Chordie does not index songs against artists'/composers' will. To remove this song please click here.

Text color:
Chord color:
Chord grids: 
Font size:    
Page size: 

B C D F G
Rate #3 of 5 versions

Jango Player

Login - add to songbook

SHARE PAGE  




You need to log in to post comments