Guitar Tabs, Chords and Lyrics
Major upgrade!! After one year development the new version of Chordie is now online! Please give feedback.


Hall of Mirrors  The Distillers

Tabbed by brody05
[verse] 
guitar 1
 
 |-------------------------------------------------------------------|
 |-------------------------------------------------------------------|
 |-----------------5-5-5-5-5-5-5-5-----------------7-7-7-7-7-7-7-7---|
 |-7-7-7-7-7-7-7-7-5-5-5-5-5-5-5-5-5-5-5-5-5-5-5-5-7-7-7-7-7-7-7-7---|
 |-7-7-7-7-7-7-7-7-3-3-3-3-3-3-3-3-5-5-5-5-5-5-5-5-5-5-5-5-5-5-5-5---|
 |-5-5-5-5-5-5-5-5-----------------3-3-3-3-3-3-3-3-------------------|

|guitar 2 x3
 
 |-------------------------------------------------------------------|
 |-------------------------------------------------------------------|
 |-------------------------------------------------------------------|
 |-7-7-7-7-7-7-7-7-12-12-12-11-12--5-5-5-5-5-5-5-5-14-14-14-14-14----|
 |-7-7-7-7-7-7-7-7-12-12-12-12-12--5-5-5-5-5-5-5-5-14-14-14-14-14----|
 |-5-5-5-5-5-5-5-5-10-10-10-10-10--3-3-3-3-3-3-3-3-12-12-12-12-12----|

[cborus] 
 
 |--------------------------------------------------|
 |--------------------------------------------------|
 |-5--5--5-5-5-------------9--9--9-9-9-7--7--7-7-7--|
 |-5--5--5-5-5-5--5--5-5-5-9--9--9-9-9-7--7--7-7-7--| x4
 |-3--3--3-3-3-5--5--5-5-5-7--7--7-7-7-5--5--5-5-5--|
 |-------------3--3--3-3-3--------------------------|

[verse] x3
[cborus] x4
guitar 1 (palm mute)
 
 |-------------------------------------------------------------------|
 |-------------------------------------------------------------------|
 |-----------------5-5-5-5-5-5-5-5-----------------------------------|
 |-7-7-7-7-7-7-7-7-5-5-5-5-5-5-5-5-5-5-5-5-5-5-5-5-5-5-5-5-6-6-6-6---|
 |-7-7-7-7-7-7-7-7-3-3-3-3-3-3-3-3-5-5-5-5-5-5-5-5-5-5-5-5-6-6-6-6---|
 |-5-5-5-5-5-5-5-5-----------------3-3-3-3-3-3-3-3-3-3-3-3-4-4-4-4---|

|guitar 2 x3
 
 |-------------------------------------------------------------------|
 |-----------------15/5------------5/13------------13/5--------------|
 |-------------------------------------------------------------------|
 |-------------------------------------------------------------------|
 |-------------------------------------------------------------------|
 |-------------------------------------------------------------------|

then
guitar1
 
 |-------------------------------------------------------------------|
 |-------------------------------------------------------------------|
 |-----------------5-5-5-5-5-5-5-5-----------------------------------|
 |-7-7-7-7-7-7-7-7-5-5-5-5-5-5-5-5-5-5-5-5-5-5-5-5-5-5-5-5-6-6-6-6---|
 |-7-7-7-7-7-7-7-7-3-3-3-3-3-3-3-3-5-5-5-5-5-5-5-5-5-5-5-5-6-6-6-6---|
 |-5-5-5-5-5-5-5-5-----------------3-3-3-3-3-3-3-3-3-3-3-3-4-4-4-4---|

|guitar 2
 
 |-------------------------------------------------------------------|
 |-15/5>-----------------------------8>------------------------------|
 |---------------------7-7-7-5-5-5-5---------------------------------|
 |-------------------------------------------------------------------|
 |-------------------------------------------------------------------|
 |-------------------------------------------------------------------|

[cborus] x2
[cborus] x2 palm mute
[cborus] x4
[verse] x 4
[end] 
 
 |------|
 |------|

|--7>--|
|--7>--|
|--5>--|
 
 |------|

[A]I come down like[C] a hurricane suc[G]ked up inside
I spit out t[D]he suffer, yeah
[A]You say you want[C] a revelation,
[G]Revel in this my [D]lover
[A]You're free at libert[C]y is this what you w[G]ant?
Sometimes I won[D]der...
[Cborus] 
[C]There's [G]a highway to, to th[E]e edge, [D]yeah
Once a night you will drive yourself there
At the end of the road you will find the answer
At the end of the road you will drink the fear
[A]I come down like[C] a bloody rain c[G]uts up flesh sky,
Pulse beating und[D]er, yeah
[A]Meat petals bloom in a b[C]one garden
Ain't no[G] god, no ghost g[D]onna save you now
[A]I sell souls at the s[C]ide of the road
[G]Would you like to take a[D] number
[Cborus] 
Instrumental: p.m. A C G D
[C]Take you[G]r time, come on,[E] get what you come fo[D]r don't
Waste my time, come on, get what you come for don't
waste my time, come on, get what you come for don't
waste my time, come on, get what you come for
[Cborus] 
I[A] watched you burn in t[C]he eye of my sun (in the[G] eye of my sun) yeah ye[D]ah
I[A] fucked you in,[C] in the eye of m[G]y sun (in the ey[D]e of my sun) yeah yeah
[repeat x2] 
[A]Yeah yeah...

Important: The song above is NOT stored on the Chordie server. The original song is hosted at www.xguitar.com. Chordie works as a search engine and provides on-the-fly formatting. Chordie does not index songs against artists'/composers' will. To remove this song please click here.

Text color:
Chord color:
Chord grids: 
Font size:    
Page size: 

A C D E G
Rate #3 of 6 versions

Login - add to songbook

SHARE PAGE  




You need to log in to post comments