Guitar Tabs, Chords and Lyrics
Major upgrade!! After one year development the new version of Chordie is now online! Please give feedback.


Believe   Disturbed

 
 eb--------------------------------------- ------------------------------------------
 bb--------------------------------------- ------------------------------------------
 gb------------5--5--10-10-10------------- ------------5--5---10-10-10---------------
 db--7-7-7--8--5--5--10-10-10------------- --7-7-7--8--5--5---10-10-10--0-0-0-0-0-0--
 ab--5-5-5--8--5--5---8--8--8---13-13-12-- --5-5-5--8--5--5---8--8--8---0-0-0-0-0-0--
 db--5-5-5--8--5--5---8--8--8---0--0--0--- --5-5-5--8--5--5---8--8--8---0-0-0-0-0-0--
 - - -pm- - -

 


 VERSE Part 1 (2x)


 

 
 eb--------------------------------------------------------------------------
 bb--------------------------------------------------------------------------
 gb--------------------------------------------------------------------------
 db--5-5-5--5-5-5--10-10-10-------------5-5-5--5-5-5--10-10-10--0-0-0-0-0-0--
 ab--5-5-5--5-5-5--8--8--8---13-13-12---5-5-5--5-5-5--8--8--8---0-0-0-0-0-0--
 db--5-5-5--5-5-5--8--8--8---0--0--0----5-5-5--5-5-5--8--8--8---0-0-0-0-0-0--
 - - - - -pm- - - - - - - - - - - - - -pm- - - - - - - - - -

 


 Part 2 (2x)


 

 
 eb--------------------------------------------------------------------------
 bb--------------------------------------------------------------------------
 gb--------------------------------------------------------------------------
 db--8-8-8--5-5-5--10-10-10-------------8-8-8--5-5-5--10-10-10--0-0-0-0-0-0--
 ab--5-5-5--5-5-5--8--8--8---13-13-12---5-5-5--5-5-5--8--8--8---0-0-0-0-0-0--
 db--5-5-5--5-5-5--8--8--8---0--0--0----5-5-5--5-5-5--8--8--8---0-0-0-0-0-0--
 - - - -pm- - - - - - - - -pm- - - - - - - - -

 


 CHORUS


 

 
 eb---------------------------------------------------------
 bb---------------------------------------------------------
 gb---------------------------------------------------------
 db--8-8-8--12-8-8--3-3-3--5-8-7--5-8-5-8-5-5--5-8-5-8-5-5--
 ab--8-8-8--8--8-8--3-3-3--5-5-5--5-5-5-5-6-6--5-5-5-5-6-6--
 db--8-8-8--8--8-8--3-3-3--5-5-5--5-5-5-5-5-5--5-5-5-5-5-5--
 eb---------------------------------------------------------------
 bb---------------------------------------------------------------
 gb---------------------------------------------------------------
 db--8-8-8--12-8-8--3-3-3--5-8-7---5-5-5--10-10-10--1-1-1--3-3-3--
 ab--8-8-8--8--8-8--3-3-3--5-5-5---5-5-5--10-10-10--1-1-1--3-3-3--
 db--8-8-8--8--8-8--3-3-3--5-5-5---5-5-5--10-10-10--1-1-1--3-3-3--
 eb------------------------------------------------------------
 bb------------------------------------------------------------
 gb------------------------------------------------------------
 db--5-5-5--10-10-10--1-1-1--3-3-3---5-5-5-5-5-5--1-1-1-8-8-8--
 ab--5-5-5--10-10-10--1-1-1--3-3-3---5-5-5-5-5-5--1-1-1-8-8-8--
 db--5-5-5--10-10-10--1-1-1--3-3-3---5-5-5-5-5-5--1-1-1-8-8-8--
 eb------------------------------------------------------------
 bb------------------------------------------------------------
 gb------------------------------------------------------------
 db--5-5-5--10-10-10--1-1-1--3-3-3---6-6-6-6-6-6--6-6-6-8-8-7--
 ab--5-5-5--10-10-10--1-1-1--3-3-3---6-6-6-6-6-6--6-6-6-6-6-6--
 db--5-5-5--10-10-10--1-1-1--3-3-3---6-6-6-6-6-6--6-6-6-6-6-6--
 - - -pm- - -

 


 


 BRIDGE Part 1 (12x)


 

 
 eb-------------------------- ------------------------------------
 bb-------------------------- ------------------------------------
 gb-------------------------- ------------------------------------
 db--0----------------------- --0-0-0---------0--------0----------
 ab--0-(let ring 4 measures)- --0-0-0-8-7-----0-7-5----0-------8--
 db--0----------------------- --0-0-0-----10--0-----8--0-7b8r7----

 


 


 Part 2 (over Bridge Part 1) (2x) (after 4x Part 1)


 

 
 eb------------------------------------------------------
 bb--6-5-6-5-6-5--6-5-6-5-6-5--6-5-6-5-6-5--6-5-6-5-6-5--
 gb------------------------------------------------------
 db------------------------------------------------------
 ab------------------------------------------------------
 db------------------------------------------------------

 


 


 BRIDGE OUTRO


 

 
 eb----------------------
 bb----------------------
 gb----------------------
 db-----10---------------
 ab--10----12--13-13-12--
 db----------------------

 


 


 ALTERED CHORUS


 

 
 eb---------------------------------------------------------
 bb---------------------------------------------------------
 gb---------------------------------------------------------
 db--8-8-8--12-8-8--3-3-3--5-8-7--5-8-5-8-5-5--5-8-5-8-5-5--
 ab--8-8-8--8--8-8--3-3-3--5-5-5--5-5-5-5-6-6--5-5-5-5-6-6--
 db--8-8-8--8--8-8--3-3-3--5-5-5--5-5-5-5-5-5--5-5-5-5-5-5--
 eb---------------------------------------------------------------
 bb---------------------------------------------------------------
 gb---------------------------------------------------------------
 db--8-8-8--12-8-8--3-3-3--5-8-7---5-5-5--10-10-10--1-1-1--3-3-3--
 ab--8-8-8--8--8-8--3-3-3--5-5-5---5-5-5--10-10-10--1-1-1--3-3-3--
 db--8-8-8--8--8-8--3-3-3--5-5-5---5-5-5--10-10-10--1-1-1--3-3-3--
 eb-----------------------------------------------------------------
 bb-----------------------------------------------------------------
 gb-----------------------------------------------------------------
 db--5-5-5--10-10-10--1-1-1--3-3-3---5-5-5--10-10-10--1-1-1--3-3-3--
 ab--5-5-5--10-10-10--1-1-1--3-3-3---5-5-5--10-10-10--1-1-1--3-3-3--
 db--5-5-5--10-10-10--1-1-1--3-3-3---5-5-5--10-10-10--1-1-1--3-3-3--
 eb-----------------------------------------------------------------
 bb-----------------------------------------------------------------
 gb-----------------------------------------------------------------
 db--5-5-5--10-10-10--1-1-1--3-3-3---5-5-5--10-10-10--1-1-1--3-3-3--
 ab--5-5-5--10-10-10--1-1-1--3-3-3---5-5-5--10-10-10--1-1-1--3-3-3--
 db--5-5-5--10-10-10--1-1-1--3-3-3---5-5-5--10-10-10--1-1-1--3-3-3--
 eb-----------------------------------------------------------------
 bb-----------------------------------------------------------------
 gb-----------------------------------------------------------------
 db--5-5-5--10-10-10--1-1-1--3-3-3---5-5-5--10-10-10--1-1-1--3-3-3--
 ab--5-5-5--10-10-10--1-1-1--3-3-3---5-5-5--10-10-10--1-1-1--3-3-3--
 db--5-5-5--10-10-10--1-1-1--3-3-3---5-5-5--10-10-10--1-1-1--3-3-3--
 eb------------------------------------------------------------
 bb------------------------------------------------------------
 gb------------------------------------------------------------
 db--5-5-5--10-10-10--1-1-1--3-3-3---6-6-6-6-6-6--6-6-6-8-8-7--
 ab--5-5-5--10-10-10--1-1-1--3-3-3---6-6-6-6-6-6--6-6-6-6-6-6--
 db--5-5-5--10-10-10--1-1-1--3-3-3---6-6-6-6-6-6--6-6-6-6-6-6--
 - - -pm- - -


Important: The song above is NOT stored on the Chordie server. The original song is hosted at www.xguitar.com. Chordie works as a search engine and provides on-the-fly formatting. Chordie does not index songs against artists'/composers' will. To remove this song please click here.

This song is displayed as text-only. Transposing and tuning is only available for chordpro-songs.
Rate #7 of 7 versions

Jango Player

Login - add to songbook

SHARE PAGE  




You need to log in to post comments