Guitar Tabs, Chords and Lyrics
Major upgrade!! After one year development the new version of Chordie is now online! Please give feedback.


The Changeling  The Doors

THE CHANGELING (By the DOORS) - From L.A. WOMAN (1970/71)
Words J.Morrison - Music: The Doors (tab by Stefano Gamba)
intro
[A7(+9)]distorto > < > > < > > < > > < >
 
 e|---------|-----------12-12----------------12-12-------------------------|
 B|---------|--12-12----12-12--------12-12---12-12-------------------------|
 G|---------|--12-12----12-12--------12-12---12-12-------------------------|
 D|-5h7-7-5-|--11-11----11-11--------11-11---11-11-------------------------|
 A|---------|--12-12----12-12--------12-12---12-12-------------------------|
 E|---------|--------------------------------------------------------------|

riff 1
 
 e|------------------|-----------------|-----------------|-----------------|
 B|------------------|-----------------|-----------------|-----------------|
 G|------------------|-----------------|-----------------|-----------------|
 D|-5h7-77---5---5---|-5h7-77---5---5--|-5h7-77---5---5--|-5h7-77---5---5--|
 A|--------7---7---7-|--------7---7---7|--------7---7---7|--------7---7---7|
 E|------------------|-----------------|-----------------|-----------------|

4 giri fino al cantato. I LIVE
 
 e|------------------|-----------------|-----------------|-----------------|
 B|------------------|-----------------|-----------------|-----------------|
 G|------------------|-----------------|-----------------|-----------------|
 D|-5h7-77---5---5---|-5h7-77---5---5--|-5h7-77---5---5--|-5h7-77---5---5--|
 A|--------7---7---7-|--------7---7---7|--------7---7---7|--------7---7---7|
 E|------------------|-----------------|-----------------|-----------------|

UP TOWN I LIVE DOWN TOWN I LIVE
 
 e|------------------|-----------------|-----------------|-----------------|
 B|------------------|-----------------|-----------------|-----------------|
 G|------------------|-----------------|-----------------|-----------------|
 D|-5h7-77---5---5---|-5h7-77---5---5--|-5h7-77---5---5--|-5h7-77---5---5--|
 A|--------7---7---7-|--------7---7---7|--------7---7---7|--------7---7---7|
 E|------------------|-----------------|-----------------|-----------------|

ALL AROUND
riff 2 > < > > < > > < > > < >
 
 e|-------8-8-8------------|---8-8-8------------|-8-8-8----------|-8-8-8---------|
 B|-------8-8-8------------|---8-8-8------------|-8-8-8----------|-8-8-8---------|
 G|-------6-6-6------------|---6-6-6------------|-6-6-6----------|-6-6-6---------|
 D|-------7-7-7----5---5---|---7-7-7----5---5---|-7-7-7---5---5--|-7-7-7---5---5-|
 A|--------------7---7---7-|----------7---7---7-|-------7---7---7|-------7---7---|
 E|------------------------|--------------------|----------------|---------------|

I HAD MONEY.... I HAD NONE...
riff 2 > < > > < > > < > > < >
 
 e|-------8-8-8------------|---8-8-8------------|-8-8-8----------|-8-8-8---------|
 B|-------8-8-8------------|---8-8-8------------|-8-8-8----------|-8-8-8---------|
 G|-------6-6-6------------|---6-6-6------------|-6-6-6----------|-6-6-6---------|
 D|-------7-7-7----5---5---|---7-7-7----5---5---|-7-7-7---5---5--|-7-7-7---5---5-|
 A|--------------7---7---7-|----------7---7---7-|-------7---7---7|-------7---7---|
 E|------------------------|--------------------|----------------|---------------|

I HAD MONEY.... I HAD NONE...
[Am]  
 
 e|-------------------------------------------------------------------------|
 B|-------5-5---------------------------------------------------------------|
 G|-------------5--5--------------------------------------------------------|
 D|-7-----------------7------5------5--------5------------------------------|
 A|----7-------------------------7-----7------------------------------------|
 E|-------------------------------------------------------------------------|

BUT I NEVER BE-SO BROKE THAT I COULDN'T LEAVE........
 
 e|-------------------------------------|-------------------------------------|
 B|-------------------------------------|-------------------------------------|
 G|--4h5--------------5-----------------|---------------5---------------------|
 D|------7-xx-----5-7---77x7x-5h7-----5-|-5h7-7-----5-7---77h7------5---------|
 A|-----------5h7-----------------5h7---|-------5h7-------------5h7-----------|
 E|-------------------------------------|-------------------------------------|

TO--WN I'M CHANGELING SEE ME
 
 e|-------------------------------------|-------------------------------------|
 B|-------------------------------------|-------------------------------------|
 G|---------------5---------------------|---------------5---------------------|
 D|-5h7-7-----5-7---77-5h7-7------5-----|-5h7-7-----5-7---77x7------5---------|
 A|-------5h7-----------------5h7-------|-------5h7-------------5h7-----------|
 E|-------------------------------------|-------------------------------------|

CHANGE.... I'M CHANGELING SEE ME
 
 e|-------------------------------------|
 B|-------------------------------------|
 G|---------------5---------------------|
 D|-5h7-7-----5-7---77-5h7-7------5-----|
 A|-------5h7-----------------5h7-------|
 E|-------------------------------------|

CHANGE I'M THE
LAm
 
 e|------------------------|-----------|---------------|-------------------|
 B|------------------------|-----------|---------------|-------------------|
 G|------------------------|-----------|---------------|-------------------|
 D|----------7---5----7----|---7--5--7-|--7-----5--77--|-------7---5-----7-|
 A|------------------------|-----------|---------------|-------------------|
 E|------------------------|-----------|---------------|-------------------|

AIR YOU BREATHE..FOOD Y EAT.FRIENDS Y GREAT IN THE SWARMING STREET
OPPURE
 
 e|------------------------------------------------------------------------|
 B|----------5----------------5-----------5----------------------5---------|
 G|-------------5---------------5---------------5--------------------5-----|
 D|-------------------7-------------7--------------7---7----7-----------7--|
 A|------------------------------------------------------------------------|
 E|------------------------------------------------------------------------|

AIR YOU BREATHE..FOOD Y EAT.FRIEND Y GREAT IN TEH SWARMING STREET
assolo n.1
FA (Wahwah) (quiimprovvisa a tuo piacere)
 
 e|-----------------------------------------------------------------------------------|
 B|------12h13-12h13-12h13-13-15--15b18b15hb13--13---15b18b15-15b18b15-15b18b15hb13---|
 G|-13h14-------------------------------------14--14--------------------------------14|
 D|-----------------------------------------------------------------------------------|
 A|-----------------------------------------------------------------------------------|
 E|-----------------------------------------------------------------------------------|

...............SEE ME..
 
 e|-------------------------------------|-------------------------------------|
 B|-------------------------------------|-------------------------------------|
 G|---------------5---------------------|---------------5---------------------|
 D|-5h7-7-----5-7---77-5h7-7------5-----|-5h7-7-----5-7---77x7------5---------|
 A|-------5h7-----------------5h7-------|-------5h7-------------5h7-----------|
 E|-------------------------------------|-------------------------------------|

CHANGE (SI ALZA DI TONALITA')
 
 e|-------------------------------------|-------------------------------------|
 B|-------------------------------------|-------------------------------------|
 G|---------------6---------------------|---------------6---------------------|
 D|-6h8-8-----6-8---88-6h8-8------6-----|-6h8-8-----6-8---88x8------6---------|
 A|-------6h8-----------------6h8-------|-------6h8-------------6h8-----------|
 E|-------------------------------------|-------------------------------------|

I LIVE...
Riff.1
 
 e|------------------|-----------------|-----------------|-----------------|
 B|------------------|-----------------|-----------------|-----------------|
 G|------------------|-----------------|-----------------|-----------------|
 D|-6h8-88---6---6---|-6h8-88---6---6--|-6h8-88---6---6--|-6h8-88---6---6--|
 A|--------8---8---8-|--------8---8---8|--------8---8---8|--------8---8---8|
 E|------------------|-----------------|-----------------|-----------------|

UP TOWN I LIVE DOWN TOWN I LIVE
 
 e|------------------|-----------------|-----------------|-----------------|
 B|------------------|-----------------|-----------------|-----------------|
 G|------------------|-----------------|-----------------|-----------------|
 D|-6h8-88---6---6---|-6h8-88---6---6--|-6h8-88---6---6--|-6h8-88---6---6--|
 A|--------8---8---8-|--------8---8---8|--------8---8---8|--------8---8---8|
 E|------------------|-----------------|-----------------|-----------------|

A L L A R O U N D
riff 2 > < > > < > > < > > < >
 
 e|-------9-9-9------------|---9-9-9------------|-9-9-9-----------|-9-9-9----------|
 B|-------9-9-9------------|---9-9-9------------|-9-9-9-----------|-9-9-9----------|
 G|-------7-7-7------------|---7-7-7------------|-7-7-7-----------|-7-7-7----------|
 D|-------8-8-8----6---6---|---8-8-8----6---6---|-8-8-8----6---6--|-8-8-8----6---6-|
 A|--------------8---8---8-|----------8---8---8-|--------8---8---8|--------8---8---|
 E|------------------------|--------------------|-----------------|----------------|

I HAD MONEY.... I HAD NONE...
riff 2 > < > > < > > < > > < >
 
 e|-------9-9-9------------|---9-9-9------------|-9-9-9-----------|-9-9-9----------|
 B|-------9-9-9------------|---9-9-9------------|-9-9-9-----------|-9-9-9----------|
 G|-------7-7-7------------|---7-7-7------------|-7-7-7-----------|-7-7-7----------|
 D|-------8-8-8----6---6---|---8-8-8----6---6---|-8-8-8----6---6--|-8-8-8----6---6-|
 A|--------------8---8---8-|----------8---8---8-|--------8---8---8|--------8---8---|
 E|------------------------|--------------------|-----------------|----------------|

I HAD MONEY.... I HAD NONE...
[Bbm]  
 
 e|-------------------------------------------------|
 B|-------6-6---------------------------------------|
 G|-------------6--6--------------------------------|
 D|-8-----------------8------6------6--------6------|
 A|----8-------------------------8-----8------------|
 E|-------------------------------------------------|

BUT I NEVER BE-SO BROKE THAT I COULDN'T LEAVE........(assolo finale)
assolo n. 2 (finale)
 
 e|--------------------------------|-------------------|---------------------------------------|
 B|---------------------------6----|-6-----------------|---------------------------------------|
 G|------------------------6/8-6\5-|---8\6-5---5/6-----|------------------6/8-8----8/10\8------|
 D|-6/8~8-8--8-8~\66----6/8--------|---------8-----6\5-|-6/8-8----8/10\8--------10-------------|
 A|------------------6/8-----------|-------------------|-------10------------------------------|
 E|--------------------------------|-------------------|---------------------------------------|

...TOWN
 
 e|-9h11-9-------------------------|----------------------|--------------------------|
 B|--------12\11-9----9/11---------|----------------------|--------------------------|
 G|----------------11------11\10---|-10/12-10-10hb12\10\8-|-10h12/13-12h13/15/13-12--|
 D|--------------------------------|----------------------|--------------------------|
 A|--------------------------------|----------------------|--------------------------|
 E|--------------------------------|----------------------|--------------------------|
 e|--------------15-16-15hb16-----------------------------|
 B|-----15-16-18--------------18-16-15hb16----------------|
 G|-12/15----------------------------------13/15----------|
 D|-------------------------------------------------------|
 A|-------------------------------------------------------|
 E|-------------------------------------------------------|

I'M THE
[FAm]  
 
 e|------------------------|-----------|---------------|-------------------|
 B|------------------------|-----------|---------------|-------------------|
 G|------------------------|-----------|---------------|-------------------|
 D|----------8---6----8----|---8--6--6-|--8-----6--88--|-------8---6-----8-|
 A|------------------------|-----------|---------------|-------------------|
 E|------------------------|-----------|---------------|-------------------|

AIR YOU BREATHE..FOOD Y EAT.FRIENDS Y GREAT IN THE SWARMING STREET
OPPURE
 
 e|------------------------------------------------------------------------|
 B|----------6----------------6-----------6----------------------6---------|
 G|-------------6---------------6---------------6--------------------6-----|
 D|-------------------8-------------8--------------8---8----8-----------8--|
 A|------------------------------------------------------------------------|
 E|------------------------------------------------------------------------|

AIR YOU BREATHE..FOOD Y EAT.FRIEND Y GREAT IN TEH SWARMING STREET
FA# (Wahwah) (quiimprovvisa a tuo piacere)
 
 e|-----------------------------------------------------------------------------------|
 B|------13h14-13h14-13h14-14-16--16b19b16hb14--14---16b19b16-16b19b16-16b19b16hb14---|
 G|-14h15-------------------------------------15--15--------------------------------15|
 D|-----------------------------------------------------------------------------------|
 A|-----------------------------------------------------------------------------------|
 E|-----------------------------------------------------------------------------------|

SEE ME
 
 e|-------------------------------------|-------------------------------------|
 B|-------------------------------------|-------------------------------------|
 G|---------------6---------------------|---------------6---------------------|
 D|-6h8-8-----6-8---88-6h8-8------6-----|-6h8-8-----6-8---88x8------6---------|
 A|-------6h8-----------------6h8-------|-------6h8-------------6h8-----------|
 E|-------------------------------------|-------------------------------------|

CHANGE....
 
 e|-------------------------------------|-------------------------------------|
 B|-------------------------------------|-------------------------------------|
 G|---------------6---------------------|---------------6---------------------|
 D|-6h8-8-----6-8---88-6h8-8------6-----|-6h8-8-----6-8---88x8------6---------|
 A|-------6h8-----------------6h8-------|-------6h8-------------6h8-----------|
 E|-------------------------------------|-------------------------------------|

I'M LIVING TOWN ONT THE MIDNIGHT TRAIN GONNA SEE ME
 
 e|-------------------------------------|-------------------------------------|
 B|-------------------------------------|-------------------------------------|
 G|---------------6---------------------|---------------6---------------------|
 D|-6h8-8-----6-8---88-6h8-8------6-----|-6h8-8-----6-8---88x8------6---------|
 A|-------6h8-----------------6h8-------|-------6h8-------------6h8-----------|
 E|-------------------------------------|-------------------------------------|

CHANGE
Used Tab Symbols
[#####################] h = Hammer On
p = Pull Off
~ = Sustain
b = Bend Up
hb = Bend Halfway
/ = Slide Up
\ = Slide Down
x = Muted Note
THE CHANGELING
I LIVE UP TOWN
I LIVE DOWN-TOWN
I LIVE ALL AROUND
I HAD MONEY
I HAD NONE
BUT I NEVER BEEN SO BROKE THAT I COULDN?T LEAVE TOWN
IìM CHANGELING...SEE ME CHANGE
I?M THE AIR YOU BREATHE, FOOD YOU EAT, FRIENDS YOU GREET, IN THE SWARMING STREET
SEE ME CHANGE...
I?M LEAVING TOWN, ON THE MIDNIGHT TRAIN, GONNA SEE ME CHANGE, CHANGE, CHANGE
L'UOMO DEI CAMBIAMENTI
Vivo in centro
Vivo nei sobborghi
Vivo un po' dappertutto
Avevo soldi
Non avevo niente
Avevo soldi
Non avevo niente
Ma non sono mai stato così squattrinato da non poter
Lasciare la città.
Sono l'uomo dei cambiamenti, guardami cambiare
Sono l'uomo dei cambiamenti, guardami cambiare
Sono l'aria che respiri, il cibo che mangi
Gli amici che saluti, nella strada affollata?guardami cambiare
Sto lasciando la città sul treno di mezzanotte?.guardami cambiare
FOR ANY QUESTION www.nostedamus@supereva.it

Important: The song above is NOT stored on the Chordie server. The original song is hosted at www.xguitar.com. Chordie works as a search engine and provides on-the-fly formatting. Chordie does not index songs against artists'/composers' will. To remove this song please click here.

Text color:
Chord color:
Chord grids: 
Font size:    
Page size: 

A7(+9) Am Bbm
Rate #2 of 4 versions

Jango Player

Login - add to songbook

SHARE PAGE  



You need to log in to post comments