Guitar Tabs, Chords and Lyrics
Major upgrade!! After one year development the new version of Chordie is now online! Please give feedback.


6:00   Dream Theater

 
 |--------------------|--------|
 |--------------------|--------|
 |--------------------|--------|
 |--------------------|--------|
 |--------------------|--------|
 |--------------------|--------|

 


 


 Q Q H Q Q H


 

 
 |---------------|---------------|
 |---------------|---------------|
 |---------------|---------------|
 |---------------|---------------|
 |-19\--7\-------|-19\--7\-------|
 |---------------|---------------|

 


 


 6/8


 Q Q H Q Q H S S +S S +S S E E E


 

 
 |---------------|---------------|-----------------------|
 |---------------|---------------|-----------------------|
 |---------------|---------------|---------------------5-|
 |---------------|---------------|---7-(7)-5-(5)---7-5---|
 |-19\--7\-------|-19\--7\-------|-0-------------0-------|
 |---------------|---------------|-----------------------|

 


 


 S S +S S +S S E E E S S +S S +S S E E E S S +S S +S S E E E


 

 
 |-----------------------|-----------------------|-----------------------|
 |-----------------------|-----------------------|-----------------------|
 |---------------------5-|---------------------5-|---------------------5-|
 |---7-(7)-5-(5)---7-5---|---7-(7)-5-(5)---7-5---|---7-(7)-5-(5)---7-5---|
 |-0-------------0-------|-0-------------0-------|-0-------------0-------|
 |-----------------------|-----------------------|-----------------------|

 


 


 S a S +S S +S S E E E S a S +S S +S S E E E S a S +S S +S S E E E


 

 
 |-------------------------|-------------------------|-------------------------|
 |-------------------------|-------------------------|-------------------------|
 |-----------------------5-|-----------------------5-|-----------------------5-|
 |---5s7-(7)-5-(5)---7-5---|---5s7-(7)-5-(5)---7-5---|---5s7-(7)-5-(5)---7-5---|
 |-0---------------0-------|-0---------------0-------|-0---------------0-------|
 |-------------------------|-------------------------|-------------------------|

 


 


 S a S +S S +S S E E E [4/4] W W


 

 
 |-------------------------|----------|------|
 |-------------------------|----------|------|
 |-----------------------5-|----------|------|
 |---5s7-(7)-5-(5)---7-5---|----------|------|
 |-0---------------0-------|----------|------|
 |-------------------------|----------|------|

 


 


 S S S S S S S S S S S S S S S S S S S S S S S S S S S S S S S S


 

 
 |---------------------------------|-----------------------------------|
 |---------------------------------|-----------------------------------|
 |---6-6---6-6---6-6-----6---6---6-|---6-6---6-6---6-6---6-6---6---6---|
 |---------------------------------|-----------------------------------|
 |-4-----4-----4-----4-4---4---4---|-4-----4-----4-----4-----4---4-----|
 |---------------------------------|-----------------------------------|

 


 


 E S S S S S S +S S S S S S S S E S S S S S S S S S S S S S S


 

 
 |---------------------------------|---------------------------------|
 |---------------------------------|---------------------------------|
 |---------------------------------|---------------------------------|
 |---7-5-7-5-7-------7-5-7-5-7-5-7-|---7-5-7-5-------5-----5-----5---|
 |-0-----------0-(0)---------------|-0---------7---7---5-7---6-7-----|
 |---------------------------------|-------------8-------------------|

 


 


 E S S S S S S +S S S S S S S S E S S S S S S S S S S S S S S


 

 
 |---------------------------------|---------------------------------|
 |---------------------------------|---------------------------------|
 |---------------------------------|---------------------------------|
 |---7-5-7-5-7-------7-5-7-5-7-5-7-|---7-5-7-5-------5-----5---5-7---|
 |-0-----------0-(0)---------------|-0---------7---7---5-7---7-------|
 |---------------------------------|-------------8-------------------|

 


 


 E S S S S S S +S S S S S S S S E S S S S S S S S S S S S S S


 

 
 |---------------------------------|---------------------------------|
 |---------------------------------|---------------------------------|
 |---------------------------------|---------------------------------|
 |---7-5-7-5-7-------7-5-7-5-7-5-7-|---7-5-7-5-------5-----5-----5---|
 |-0-----------0-(0)---------------|-0---------7---7---5-7---6-7-----|
 |---------------------------------|-------------8-------------------|

 


 


 E S S S S S S +S S S S S S S S E S S S S S S S S S S S S S S


 

 
 |---------------------------------|---------------------------------|
 |---------------------------------|---------------------------------|
 |---------------------------------|---------------------------------|
 |---7-5-7-5-7-------7-5-7-5-7-5-7-|---7-5-7-5-------5-----5---5-7---|
 |-0-----------0-(0)---------------|-0---------7---7---5-7---7-------|
 |---------------------------------|-------------8-------------------|

 


 


 E S S S S S S +S S S S S S S S E S S S S S S S S S S S S S S


 

 
 |---------------------------------|---------------------------------|
 |---------------------------------|---------------------------------|
 |---------------------------------|---------------------------------|
 |---7-5-7-5-7-------7-5-7-5-7-5-7-|---7-5-7-5-------5-----5-----5---|
 |-0-----------0-(0)---------------|-0---------7---7---5-7---6-7-----|
 |---------------------------------|-------------8-------------------|

 


 


 E S S S S S S +S S S S S S S S E S S S S S S S S S S S S S S


 

 
 |---------------------------------|---------------------------------|
 |---------------------------------|---------------------------------|
 |---------------------------------|---------------------------------|
 |---7-5-7-5-7-------7-5-7-5-7-5-7-|---7-5-7-5-------5-----5---5-7---|
 |-0-----------0-(0)---------------|-0---------7---7---5-7---7-------|
 |---------------------------------|-------------8-------------------|

 


 


 Q E E H Q E E H Q E E Q E S T T


 

 
 |-------------|-------------|--------------------|
 |-------------|-------------|--------------------|
 |-------------|-------------|-----------------4--|
 |-------------|-------------|---------------5----|
 |-3--5--------|-3--5--------|-3--5---------------|
 |-------------|-------------|--------------------|

 


 


 9/8


 S S S S S S S S S S S S S S S S W W


 

 
 |---------------------------------|----------|------|
 |---------------------------------|----------|------|
 |-5-4-5-4-5-4---------------------|----------|------|
 |-------------5-7-5---5-4---------|----------|------|
 |-------------------7-----5-3-2-0-|----------|------|
 |---------------------------------|----------|------|

 


 


 [4/4] E E E E E S E E S E E E S E S E S E S E S S S S S S +S S S S S S S S


 

 
 |-------------------|---------------------|-----------------------------------|
 |-------------------|---------------------|-----------------------------------|
 |-------------------|---------------------|-----------------------------------|
 |-7---5-------------|-7---5---------------|---7-5-7-5-7-------7-5-7-5-7-5-7---|
 |---------3---4-4---|---------4---4---4---|-0-----------0-(0)-----------------|
 |-------------------|---------------------|-----------------------------------|

 


 


 E S S S S S S S S S S S S S S E S S S S S S +S S S S S S S S


 

 
 |-------------------------------|----------------------------------|
 |-------------------------------|----------------------------------|
 |-------------------------------|----------------------------------|
 |---7-5-7-5-------5-----5-----5-|---7-5-7-5-7-------7-5-7-5-7-5-7--|
 |-0---------7---7---5-7---6-7---|-0-----------0-(0)----------------|
 |-------------8-----------------|----------------------------------|

 


 


 E S S S S S S S S S S S S S S E S S S S S S +S S S S S S S S


 

 
 |-------------------------------|----------------------------------|
 |-------------------------------|----------------------------------|
 |-------------------------------|----------------------------------|
 |---7-5-7-5-------5-----5---5-7-|---7-5-7-5-7-------7-5-7-5-7-5-7--|
 |-0---------7---7---5-7---7-----|-0-----------0-(0)----------------|
 |-------------8-----------------|----------------------------------|

 


 


 E S S S S S S S S S S S S S S E S S S S S S +S S S S S S S S


 

 
 |-------------------------------|----------------------------------|
 |-------------------------------|----------------------------------|
 |-------------------------------|----------------------------------|
 |---7-5-7-5-------5-----5-----5-|---7-5-7-5-7-------7-5-7-5-7-5-7--|
 |-0---------7---7---5-7---6-7---|-0-----------0-(0)----------------|
 |-------------8-----------------|----------------------------------|

 


 


 E S S S S S S S S S S S S S S Q E E H Q E E H


 

 
 |-------------------------------|-------------|-------------|
 |-------------------------------|-------------|-------------|
 |-------------------------------|-------------|-------------|
 |---7-5-7-5-------5-----5---5-7-|-------------|-------------|
 |-0---------7---7---5-7---7-----|-3--5--------|-3--5--------|
 |-------------8-----------------|-------------|-------------|

 


 


 6/8


 Q E E Q E S T T S S S S S S S S S S S S S S S S +S E E S E E E


 

 
 |-------------------|---------------------------------|--------------------|
 |-------------------|---------------------------------|--------------------|
 |-----------------4-|-5-4-5-4-5-4---------------------|---------------5----|
 |---------------5---|-------------5-7-5---5-4---------|-----7-5---7-5------|
 |-3--5--------------|-------------------7-----5-3-2-0-|-(0)-----0----------|
 |-------------------|---------------------------------|--------------------|

 


 


 S E E S E E E S E E S E E E S E E S E E E


 

 
 |---------------|---------------|----------------|
 |---------------|---------------|----------------|
 |-------------5-|-------------5-|-------------5--|
 |---7-5---7-5---|---7-5---7-5---|---7-5---7-5----|
 |-0-----0-------|-0-----0-------|-0-----0--------|
 |---------------|---------------|----------------|

 


 


 S E E S E E E S E E S E E E S E E S E E E


 

 
 |----------------|----------------|-----------------|
 |----------------|----------------|-----------------|
 |--------------5-|--------------5-|--------------5--|
 |---/7-5---7-5---|---/7-5---7-5---|---/7-5---7-5----|
 |-0------0-------|-0------0-------|-0------0--------|
 |----------------|----------------|-----------------|

 


 


 S E E S E E E [4/4] Q Q H Q Q H


 

 
 |----------------|---------------|---------------|
 |----------------|---------------|---------------|
 |--------------5-|---------------|---------------|
 |---/7-5---7-5---|---------------|---------------|
 |-0------0-------|-19\--7\-------|-19\--7\-------|
 |----------------|---------------|---------------|

 


 


 Q Q H Q Q H E S S S S S S +S S S S S S S S


 

 
 |---------------|---------------|-----------------------------------|
 |---------------|---------------|-----------------------------------|
 |---------------|---------------|-----------------------------------|
 |---------------|---------------|---7-5-7-5-7-------7-5-7-5-7-5-7---|
 |-19\--7\-------|-19\--7\-------|-0-----------0-(0)-----------------|
 |---------------|---------------|-----------------------------------|

 


 


 E S S S S S S S S S S S S S S E S S S S S S +S S S S S S S S


 

 
 |-------------------------------|-----------------------------------|
 |-------------------------------|-----------------------------------|
 |-------------------------------|-----------------------------------|
 |---7-5-7-5-------5-----5-----5-|---7-5-7-5-7-------7-5-7-5-7-5-7---|
 |-0---------7---7---5-7---6-7---|-0-----------0-(0)-----------------|
 |-------------8-----------------|-----------------------------------|

 


 


 E S S S S S S S S S S S S S S E S S S S S S +S S S S S S S S


 

 
 |-------------------------------|-----------------------------------|
 |-------------------------------|-----------------------------------|
 |-------------------------------|-----------------------------------|
 |---7-5-7-5-------5-----5---5-7-|---7-5-7-5-7-------7-5-7-5-7-5-7---|
 |-0---------7---7---5-7---7-----|-0-----------0-(0)-----------------|
 |-------------8-----------------|-----------------------------------|

 


 


 E S S S S S S S S S S S S S S E S S S S S S +S S S S S S S S


 

 
 |-------------------------------|-----------------------------------|
 |-------------------------------|-----------------------------------|
 |-------------------------------|-----------------------------------|
 |---7-5-7-5-------5-----5-----5-|---7-5-7-5-7-------7-5-7-5-7-5-7---|
 |-0---------7---7---5-7---6-7---|-0-----------0-(0)-----------------|
 |-------------8-----------------|-----------------------------------|

 


 


 E S S S S S S S S S S S S S S E S S S S S S +S S S S S S S S


 

 
 |-------------------------------|-----------------------------------|
 |-------------------------------|-----------------------------------|
 |-------------------------------|-5---------------------------------|
 |---7-5-7-5-------5-----5---5-7-|---7-5-7-5-7-------7-5-7-5-7-5-7---|
 |-0---------7---7---5-7---7-----|-------------0-(0)-----------------|
 |-------------8-----------------|-----------------------------------|

 


 


 E S S S S S S S S S S S S S S S S S S S S S S +S S S S S S S S


 

 
 |-------------------------------|------------------------------------|
 |-------------------------------|------------------------------------|
 |-8-----------------------------|-7-5--------------------------------|
 |---7-5-7-5-------5-----5---5-7-|-----7-5-7-5-7-------7-5-7-5-7-5-7--|
 |-----------7---7---5-7---7-----|---------------0-(0)----------------|
 |-------------8-----------------|------------------------------------|

 


 


 S S S S S S S S S S S S S S S S E S S S S S S +S S S S S S S S


 

 
 |---------------------------------|----------------------------------|
 |---------------------------------|----------------------------------|
 |-4-5-----------------------------|-5--------------------------------|
 |-----7-5-7-5-------5-----5---5-7-|---7-5-7-5-7-------7-5-7-5-7-5-7--|
 |-------------7---7---5-7---7-----|-------------0-(0)----------------|
 |---------------8-----------------|----------------------------------|

 


 


 E S S S S S S S S S S S S S S S S S S S S S S +S S S S S S S S


 

 
 |-------------------------------|------------------------------------|
 |-------------------------------|------------------------------------|
 |-8-----------------------------|-7-5--------------------------------|
 |---7-5-7-5-------5-----5---5-7-|-----7-5-7-5-7-------7-5-7-5-7-5-7--|
 |-----------7---7---5-7---7-----|---------------0-(0)----------------|
 |-------------8-----------------|------------------------------------|

 


 


 S S S S S S S S S S S S S S S S W +Q H.


 

 
 |---------------------------------|----------|------------|
 |---------------------------------|----------|------------|
 |-4-5-----------------------------|----------|------9-----|
 |-----7-5-7-5-------5-----5---5-7-|----------|------------|
 |-------------7---7---5-7---7-----|-7--------|-(7)--------|
 |---------------8-----------------|----------|------------|

 


 


 W +Q H. W +Q H.


 

 
 |----------|--------------|----------|------------|
 |----------|--------------|----------|------------|
 |----------|------7-------|----------|------5-----|
 |----------|--------------|----------|------------|
 |-5--------|-(5)----------|-3--------|-(3)--------|
 |----------|--------------|----------|------------|

 


 


 W +Q H. S S S S S S S S S S S S S S S S


 

 
 |----------|--------------|------------------------------------|
 |----------|--------------|------------------------------------|
 |----------|------7-------|-7-5-7-5-7-5---7-5-7-5-7-5---5-7----|
 |----------|--------------|-------------7-------------7--------|
 |-5--------|-(5)----------|------------------------------------|
 |----------|--------------|------------------------------------|

 


 


 S S S S S S S S S S S S S S S S S S S S S S S S S S S S S S S S


 

 
 |---------------------------------|-----------------------------------|
 |---------------------------------|-----------------------------------|
 |-8-9-8-5-7-5---5-7-6-7-5-7-8-7-5-|-7-5-7-5-7-5---7-5-7-5-7-5---5-7---|
 |-------------7-------------------|-------------7-------------7-------|
 |---------------------------------|-----------------------------------|
 |---------------------------------|-----------------------------------|

 


 


 S S S S S S S S S S S S S S S S S S S S S S S S S S S S S S S S


 

 
 |---------------------------------|-----------------------------------|
 |-----7---------------------------|-------------------7---9-7---------|
 |-8-9---8-9-8-7-8-7-5-7-5-4-5-4-5-|-7-5-7-5-7-5---8-7---8-----8-7-5---|
 |---------------------------------|-------------7---------------------|
 |---------------------------------|-----------------------------------|
 |---------------------------------|-----------------------------------|

 


 


 S S S S S S S S S S S S S S S S S S S S S S S S S S S S S S S S


 

 
 |---------------------------------|------------------------------------|
 |---------------7-----------7-----|------------------------9---7-------|
 |-8-9-8-7-9-8-7---9-8-7-5-----9-8-|-7-8-7-5-7------8-9---5---------8---|
 |-------------------------7-------|-----------9-10-----7-----7---7-----|
 |---------------------------------|------------------------------------|
 |---------------------------------|------------------------------------|

 


 


 S S S S S S S S S S S S S S S S E S S S S S S +S S S S S S S S


 

 
 |---------------------------------|----------------------------------|
 |-------7-9-7---7-6---6-----------|----------------------------------|
 |-9-7-9-------9-----7---9-5-8-7-5-|----------------------------------|
 |---------------------------------|---7-5-7-5-7-------7-5-7-5-7-5-7--|
 |---------------------------------|-0-----------0-(0)----------------|
 |---------------------------------|----------------------------------|

 


 


 E S S S S S S S S S S S S S S E S S S S S S +S S S S S S S S


 

 
 |-------------------------------|----------------------------------|
 |-------------------------------|----------------------------------|
 |-------------------------------|----------------------------------|
 |---7-5-7-5-------5-----5-----5-|---7-5-7-5-7-------7-5-7-5-7-5-7--|
 |-0---------7---7---5-7---6-7---|-0-----------0-(0)----------------|
 |-------------8-----------------|----------------------------------|

 


 


 E S S S S S S S S S S S S S S E S S S S S S +S S S S S S S S


 

 
 |-------------------------------|-----------------------------------|
 |-------------------------------|-----------------------------------|
 |-------------------------------|-----------------------------------|
 |---7-5-7-5-------5-----5---5-7-|---7-5-7-5-7-------7-5-7-5-7-5-7---|
 |-0---------7---7---5-7---7-----|-0-----------0-(0)-----------------|
 |-------------8-----------------|-----------------------------------|

 


 


 E S S S S S S S S S S S S S S E S S S S S S +S S S S S S S S


 

 
 |-------------------------------|-----------------------------------|
 |-------------------------------|-----------------------------------|
 |-------------------------------|-----------------------------------|
 |---7-5-7-5-------5-----5-----5-|---7-5-7-5-7-------7-5-7-5-7-5-7---|
 |-0---------7---7---5-7---6-7---|-0-----------0-(0)-----------------|
 |-------------8-----------------|-----------------------------------|

 


 


 E S S S S S S S S S S S S S S E S S S S S S +S S S S S S S S


 

 
 |-------------------------------|-----------------------------------|
 |-------------------------------|-----------------------------------|
 |-------------------------------|-----------------------------------|
 |---7-5-7-5-------5-----5---5-7-|---7-5-7-5-7-------7-5-7-5-7-5-7---|
 |-0---------7---7---5-7---7-----|-0-----------0-(0)-----------------|
 |-------------8-----------------|-----------------------------------|

 


 


 E S S S S S S S S S S S S S S E S S S S S S +S S S S S S S S


 

 
 |-------------------------------|-----------------------------------|
 |-------------------------------|-----------------------------------|
 |-------------------------------|-----------------------------------|
 |---7-5-7-5-------5-----5-----5-|---7-5-7-5-7-------7-5-7-5-7-5-7---|
 |-0---------7---7---5-7---6-7---|-0-----------0-(0)-----------------|
 |-------------8-----------------|-----------------------------------|

 


 


 E S S S S S S S S S S S S S S E S S S S S S +S S S S S S S S


 

 
 |-------------------------------|-----------------------------------|
 |-------------------------------|-----------------------------------|
 |-------------------------------|-----------------------------------|
 |---7-5-7-5-------5-----5---5-7-|---7-5-7-5-7-------7-5-7-5-7-5-7---|
 |-0---------7---7---5-7---7-----|-0-----------0-(0)-----------------|
 |-------------8-----------------|-----------------------------------|

 


 


 E S S S S S S S S S S S S S S E S S S S S S +S S S S S S S S


 

 
 |-------------------------------|-----------------------------------|
 |-------------------------------|-----------------------------------|
 |-------------------------------|-----------------------------------|
 |---7-5-7-5-------5-----5-----5-|---7-5-7-5-7-------7-5-7-5-7-5-7---|
 |-0---------7---7---5-7---6-7---|-0-----------0-(0)-----------------|
 |-------------8-----------------|-----------------------------------|

 


 


 E S S S S S S S S S S S S S S Q E E H Q E E H


 

 
 |-------------------------------|-------------|-------------|
 |-------------------------------|-------------|-------------|
 |-------------------------------|-------------|-------------|
 |---7-5-7-5-------5-----5---5-7-|-------------|-------------|
 |-0---------7---7---5-7---7-----|-3--5--------|-3--5--------|
 |-------------8-----------------|-------------|-------------|

 


 


 6/8


 Q E E Q E S T T S S S S S S S S S S S S S S S S S S +S S +S S E E E


 

 
 |-------------------|---------------------------------|------------------------|
 |-------------------|---------------------------------|------------------------|
 |-----------------4-|-5-4-5-4-5-4---------------------|---------------------5--|
 |---------------5---|-------------5-7-5---5-4---------|---7-(7)-5-(5)---7-5----|
 |-3--5--------------|-------------------7-----5-3-2-0-|-0-------------0--------|
 |-------------------|---------------------------------|------------------------|

 


 


 S S +S S +S S E E E S S +S S +S S E E E S S +S S +S S E E E


 

 
 |-----------------------|-----------------------|-----------------------|
 |-----------------------|-----------------------|-----------------------|
 |---------------------5-|---------------------5-|---------------------5-|
 |---7-(7)-5-(5)---7-5---|---7-(7)-5-(5)---7-5---|---7-(7)-5-(5)---7-5---|
 |-0-------------0-------|-0-------------0-------|-0-------------0-------|
 |-----------------------|-----------------------|-----------------------|

 


 


 S a S +S S +S S E E E S a S +S S +S S E E E S a S +S S +S S E E E


 

 
 |-------------------------|-------------------------|-------------------------|
 |-------------------------|-------------------------|-------------------------|
 |-----------------------5-|-----------------------5-|-----------------------5-|
 |---5s7-(7)-5-(5)---7-5---|---5s7-(7)-5-(5)---7-5---|---5s7-(7)-5-(5)---7-5---|
 |-0---------------0-------|-0---------------0-------|-0---------------0-------|
 |-------------------------|-------------------------|-------------------------|

 


 


 S a S +S S +S S E E E S S S S S S S S S S S S S S S S S S S S S S S S


 

 
 |-------------------------|-------------------------|--------------------------|
 |-------------------------|-------------------------|--------------------------|
 |-----------------------5-|-------------------------|--------------------------|
 |---5s7-(7)-5-(5)---7-5---|-5-5-5-5-5-5-------------|--------------------------|
 |-0---------------0-------|-------------5-5-5-5-5-5-|-0-0-0-0-0-0-0-0-0-0-0-0--|
 |-------------------------|-------------------------|--------------------------|

 


 


 S S S S S S S S S S S S S S S S S S S S S S S S


 

 
 |-------------------------|--------------------------|
 |-------------------------|--------------------------|
 |-------------------------|--------------------------|
 |-5-5-5-5-5-5-------------|--------------------------|
 |-------------5-5-5-5-5-5-|-0-0-0-0-0-0-0-0-0-0-0-0--|
 |-------------------------|--------------------------|

 


 


 S S S S S S S S S S S S S S S S S S S S S S S S


 

 
 |-------------------------|--------------------------|
 |-------------------------|--------------------------|
 |-------------------------|--------------------------|
 |-2-2-2-2-2-2-2-2-2-2-2-2-|-4-4-4-4-4-4-4-4-4-4-4-4--|
 |-------------------------|--------------------------|
 |-------------------------|--------------------------|

 


 


 S S S S S S S S S S S S S S S S S S S S S S S S


 

 
 |-------------------------|--------------------------|
 |-------------------------|--------------------------|
 |-------------------------|--------------------------|
 |-------------------------|--------------------------|
 |-2-2-2-2-2-2-2-2-2-2-2-2-|-0-0-0-0-0-0-0-0-0-0-0-0--|
 |-------------------------|--------------------------|

 


 


 [4/4] Q Q H Q Q H E S S S S S S S S S S S E.


 

 
 |---------------|---------------|----------------------------|
 |---------------|---------------|---------------------9---9--|
 |---------------|---------------|---9-7-9-7---9-7------------|
 |---------------|---------------|-----------9-----9----------|
 |-19\--7\-------|-19\--7\-------|-7-----------------7--------|
 |---------------|---------------|----------------------------|

 


 


 E S S S S S S S S S S S S S S


 

 
 |------------------------------------|
 |-------------7-7-7-9-9-9-11-11-11---|
 |---9-7-9-7--------------------------|
 |-----------9------------------------|
 |-7----------------------------------|
 |------------------------------------|

 


 


 S S S S S S S S S S S S S S S S S S S S S S S S S S S S S S S S


 

 
 |---------------------------------|-----------------------------------|
 |---------------------------------|-----------------------------------|
 |---6-6---6-6---6-6-----6---6-6-6-|---6-6---6-6---6-----6-6---6-------|
 |---------------------------------|-----------------------------------|
 |-4-----4-----4-----4-4---4-------|-4-----4-----4---4-4-----4---4-4---|
 |---------------------------------|-----------------------------------|

 


 


 S S S S S S S S S S S S S S S S S S S S S S S S S S S S S S S S


 

 
 |---------------------------------|------------------------------------*|
 |---------------------------------|------------------------------------*|
 |---6-6---6-6---6-6-----6---6-6-6-|---6-6---6-6---6-6-----6---6--------*|
 |---------------------------------|------------------------------------*|
 |-4-----4-----4-----4-4---4-------|-4-----4-----4-----4-4---4---4-4----*|
 |---------------------------------|------------------------------------*|

 


 


 Duration Legend


 

 
 ---------------
 W - whole; H - half; Q - quarter; E - 8th; S - 16th; T - 32nd; X - 64th; a - acciaccatura

 


 + - note tied to previous; . - note dotted; .. - note double dotted


 Uncapitalized letters represent notes that are staccato (1/2 duration)


 Irregular groupings are notated above the duration line


 Duration letters will always appear directly above the note/fret number it represents the


 duration for. Duration letters with no fret number below them represent rests. Multi-


 bar rests are notated in the form Wxn, where n is the number of bars to rest for. Low


 melody durations appear below the staff


 


 Tablature Legend


 

 
 ----------------

 


 h - hammer-on


 p - pull-off


 b - bend


 pb - pre-bend


 r - bend release (if no number after the r, then release immediately)


 /\ - slide into or out of (from/to "nowhere")


 s - legato slide


 S - shift slide


 <n> - natural harmonic


 (n) - artificial harmonic


 n(n) - tapped harmonic


 ~ - vibrato


 tr - trill


 T - tap


 TP - trem. picking


 PM - palm muting


 \n/ - tremolo bar dip; n = amount to dip


 \n - tremolo bar down


 n/ - tremolo bar up


 /n\ - tremolo bar inverted dip


 = - hold bend; also acts as connecting device for hammers/pulls


 <> - volume swell (louder/softer)


 x - on rhythm slash represents muted slash


 o - on rhythm slash represents single note slash


 


 Misc Legend


 

 
 -----------


Important: The song above is NOT stored on the Chordie server. The original song is hosted at www.xguitar.com. Chordie works as a search engine and provides on-the-fly formatting. Chordie does not index songs against artists'/composers' will. To remove this song please click here.

This song is displayed as text-only. Transposing and tuning is only available for chordpro-songs.
Rate #1 of 1 versions

Jango Player

Login - add to songbook

SHARE PAGE  



You need to log in to post comments