Guitar Tabs, Chords and Lyrics
Major upgrade!! After one year development the new version of Chordie is now online! Please give feedback.


Learning to Live  Dream Theater

Author - Felipe Aguirre Kaliks
Guitar Tablature for:
LEARNING TO LIVE / DREAM THEATER
as in "Images and Words"
Tabbed by Felipe Aguirre K.
Hy! My name is Felipe and I live in Santiago, Chile. I'm new in
this, so if you have any comments or info about Dream Theater, just e-mail
me at MKALIKSL@CTCREUNA.CL
I tabbed this song all by my self, so there might be some little "mistakes"
for the perfectionist guitar players... ENJOY!!!!
0:13
 
 e--------------------------------
 B--o--7--7--7--7--7--7--7--7--o--
 G-----6--6--6--6--6--6--6--6-----
 D-----4--4--4--4--4--4--4--4-----
 A--o--------------------------o--
 E--------------------------------
 --------------------------------------------------------------------
 --------------------------------------------------------------------
 -----6---4----------------------------------------------------------
 -----6---4---4---4---5------4---4---4---4---5----4---4---4---4---5--
 -----9---7---4---4---4------4---4---4---4---4----4---4---4---4---4--
 -------------3---0---3------2---0---2---0---3----2---0---2---0---3--
 --------------------------------------------------------------------
 --o--------------------------------------------------------------o--
 --------------------------------------------------------------------
 -------4--4--4--4---------4--4--4--4--------2--2-----5--5-----------
 --o--------------------------------------------------------------o--
 -------------------0--2---------------0--0--------0--------0--------
 -----------------------------------------------------------
 -----------------------------------------------------------
 -----6--6--6--6--------6--6--6-----6--6--6--------6--------
 -----------------------------------------------------------
 -----------------4--4-----------4-----------4--4-----4-----
 -----------------------------------------------------------
 ----------------------------------
 ----------------------------------
 ---4--4------7--7------9--9-------
 ----------------------------------
 ---------2---------5---------7----
 ----------------------------------
 -----------------------------------------------------------
 -----------------------------------------------------------
 -----6--6--6--6--------6--6--6-----6--6--6--------6--------
 -----------------------------------------------------------
 -----------------4--4-----------4-----------4--4-----4-----
 -----------------------------------------------------------
 P.M.------------------------------------
 ---------------------------------------------------------------------
 ---------------------------------------------------------------------
 ---4--4------7--7----------------------------------------------------
 ----------------------------------2---------------------2------------
 ---------2---------5--------------2---------------------2------------
 -------------------------0--0--0-----0--0------0--0--0-----0--0------
 P.M.----------------------------------------
 -----------------------------------------------
 -----------------------------------------------
 -----------------------------------------------
 -----------2-----------------------------------
 -----------2----------------------4-----3--2---
 --0--0--0-----0--0----0--0--0--0-----0---------
 P.M.-----------------------------
 --------------------------------------
 --------------------------------------
 --------------------------------------
 ---2--2--2-----2--2--2-----2--2--2----
 ---2--2--2-----2--2--2-----2--2--2----
 ---0--0--0-----0--0--0-----0--0--0----

0:52
 
 P.M.---------------------------------------------------------------
 -------------------------------------------------------------------
 -------------------------------------------------------------------
 -------------------------------------------------------------------
 -------4-------4------4-------4--------4-----4-------4--------4----
 ----4-------4----2--4---4-0-4---4----4-----4---2--4-----4-0-4---4--
 -2-------0-------------------------2-----0-------------------------
 P.M.-----------------------------------------------------------------
 ---------------------------------------------------------------------
 ---------------------------------------------------------------------
 ---------------------------------------------------------------------
 ------2-----4-----4-----2-----------4-------4------4-----------4-----
 ----2-----4-----4---4-----2------4-------4----2--4----4--0--4-----4--
 --0-----2-----4-------0-------2--------0-----------------------------
 P.M.-------------------------------------------------
 ---------------------------------------------------------
 -------------------------------------------------7-------
 -------------------------------------4--------4-----4----
 ------2-----4-----4-----2---------2-----2--4-------------
 ----2-----4-----4---4-----2----0-------------------------
 --0-----2-----4-------0----------------------------------

Sl.---- 1:13
 
 --------------3----------------
 --------------3------3--/--5---
 --------------4------2--/--4---
 --4-----4-----5----------------
 --4-----4-----5----------------
 --2-----0-----3----------------

1:57
 
 Clean let ring--------- let ring-----------
 -------0--------------------0----------------------0---------------
 -------0----------------------0-----3----------------3------------
 -------0----------------0-----------0----------0---------0--------
 -------4----------4-----------------0-------0---------------------
 -------2-\/----------2--------------3----3------------------------
 -------0--V-----0--------------------------------------------------
 let ring------------------------------------------------------
 --------------0----------------0------------------------------------
 -----------0--1-------------1-----1-\-0--------------------3--------
 --------2-----2----------2---------P.O.--2-----------------0--------
 -----2----------------2---------------------2----------4---4--------
 --0----------------0--------------------------------2------2--------
 -------------------------------------------------0------------------

w/DIST.
 
 Harm.----------------------- Harm.--------- Harm.-------
 --7-----------------------------------------------------------------
 ----------7-------12----7-----13---7------12------13---12-----------
 ------5-----------12-------5----------5-----------------------------
 --------------7---12--------------------------7--------------4------
 -----------------------------------------------------------------7--
 --------------------------------------------------------------------

Harm.
 
 --------------
 ---5--/\/\/---
 --------------
 -----w/bar----
 --------------
 --------------

2:42
CHORUS
 
 -----------------------------------
 -----------------------------------
 ---2------4-------------2------4---
 ---2------4------2------2------4---
 ---0------2------2------0------2---
 -----------------0-----------------
 -------------------------------------------------------------
 -------------------------------------------------------------
 -------------------------------------------------------------
 -----------------4--5--4----------------------4--5--4--------
 --7--7-----5--7-----------5----7--7-----5--7-----------5-----
 --------7----------------------------7--------------------7--
 -------------------------------------------------------------------
 -------------------------------------------------------------------
 --2----4-----------------------------------------------------------
 --2----4-------------------4--5--4---------------------4--5--4-----
 --0----2----7--7-----5--7-----------5----7--7-----5--7---------5---
 ------------------7----------------------------7-----------------7-
 P.M.--------
 ------------------------
 ------------------------
 --2----4----------------
 --2----4-------------4--
 --0----2-------------2--
 ------------0--0--0--0--
 P.M.-------------------------------------------------------- 6 Times
 --------------------------------------------------------------
 --o--------------------------------------------------------o--
 --------------------------------------------------------------
 ------------2--------------3--------------2--------------3----
 --o---------2--------------1--------------2--------------1-o--
 ---0--0--0-----0--0--0--0-----0--0--0--0-----0--0--0--0--1----
 P.M.-------------------------------------------------------------
 -------------------------------------------------------------------
 -o---------------------------------------------------------------o-
 ----------------------------Sl.------------------------------------
 ---------2-------2---------4-\-3-----------2-------------------3---
 -o-------2-------2---------2-\-1-----------2-------------------1-o-
 --0-0-0-----0--0---0--0--0---------0-0-0-0---0-0-0-0-0-0-0-0-0-----
 ------------------------------------------------------------------
 -o--------------------------------------------------------------o-
 ------------------------------------------------------------------
 -----------2-------4---------3------------------------------------
 -o---------2-------2---------1--------5-4---3-2-----2-2-2-2-2-2-o-
 ---0-0-0-0---0-0-0---0-0-0-0---0-0--0-----0-----0-1-0-0-0-0-0-0---

4:01 4 Times
 
 --------------------------------------------------------------------
 --o--------------------------------------------------------------o--
 --------------------------------------------------------------------
 -------4--4--4--4---------4--4--4--4--------2--2-----5--5-----------
 --o--------------------------------------------------------------o--
 -------------------0--2---------------0--0--------0--------0--------
 ---0--0----------0--0----------------------------------------0----
 -o-0-----0-------0-----0-------5--5--5--5--5--5--5--5--------0----
 ---3--------3----8--------8----7--7--7--7--7--7--7--7--------9----
 ---4-------------9----------9--7--7--7--7--7--7--7--7--------9----
 -o-4-------------9-------------5--5--5--5--5--5--5--5--------7----
 ---2-------------7-------------------------------------------0----
 --7--7--7--7--7---- The chords are the same, but the end of the
 --7--7--7--7--7--o- second time of the repetition has a different
 --9--9--9--9--9---- rhythm.
 --9--9--9--9--9----
 --7--7--7--7--7--o-
 -------------------
 --------------------------------------------------
 --------------------------------------------------
 --------------------------------------------------
 -----4---4---4---4--5---------4---4---4---4---5---
 -----4---4---4---4--4---------4---4---4---4---4---
 -----2---0---2---0--3---------2---0---2---0---3---

4:45
Acoustic
 
 ----------2---------2--------2-----------2-------
 -o-----2---------2--------2-----2-----2-----2--o-
 -----------------------4-----------2-------------
 ----4--------2-----------------------------------
 -o---------------------------------------------o-
 -------------------------------------------------
 --------0--------2--------2------------0------
 -----0--------2--------2-----2------0-----0---
 --------------------1-------------------------
 --2--------4---------------------2------------
 ----------------------------------------------
 ----------------------------------------------
 --------------3---
 --------------3---
 --------------4---
 --4-----4-----5---
 --4-----4-----5---
 --2-----0-----3---

4:57
Acoustic P.Off
 
 ------------------------2-\-0--------0--------------------
 -------------------------------0--------0------2----------
 --------0-------------------------3--------3------3-------
 -----4--------------4--------------------------------4----
 --2--------------4----------------------------------------
 -----------3--2-------------------------------------------

w/Distortion Acoustic
 
 --------------------------------2--------------0---------0------
 -----------------------------------2--------0-------5/7---------
 -------4----2--2----6-------------------------------sl.---------
 --4----4----2--2----6--------4----------------------------------
 --4----2----0--0----4-----2-----------4--0----------------------
 --2----2------------------------------------------4----------5--
 -----------0-------------0--------------0------------0-------------0--
 --------0----------------0--------------0------------0-------------0--
 -----3---------------1---1--------------1---------1--1----------1--1--
 ------------------2------2--------------2------3-----2------2------2--
 ----------------------------------0--2--------------------------------
 --2------------0--------------0-------------0------------0------------

Solo:
 
 -----------------H.On-------------------------------------------------
 -------14-------14/15--14---------------------------------------------
 -----------16-------------------13--14-/-16-16-16-16---14--13-/-18----
 ---16----------------------16---------Sl.--------------------Sl.------
 ----------------------------------------------------------------------
 ----------------------------------------------------------------------
 ----------------------------------------------------------------------
 ----------------------------------------------------------------------
 --------16--14--13----------------------------------------------------
 ---14---------------16--14--13--14--16--16--16--14/16--14--13---------
 -------------------------------------------------H.On----------16-----
 ----------------------------------------------------------------------
 ----------------------------------------------------------------------
 ----------------------------------------------------------------------
 -------14--13--11---------------11--13--14--14--14--11/14--13--11-----
 ---12--------------14--12---14-----------------------Sl.-----------14-
 ----------------------------------------------------------------------
 ----------------------------------------------------------------------

rake
 
 ----------------------------------9x--12-10--9------------------------
 ----9--7------------7--9--10--12--9x-----------12-10--9--12-10--9-----
 ----------9------9----------------9x-------------------------------11-
 -9----------9--9------------------------------------------------------
 ----------------------------------------------------------------------
 ----------------------------------------------------------------------

w/bar
 
 ---------------------12--12---9---9---9-------------------9-------
 --o--12--12--12--10--12--12---9---9---9--12--12--12--10---0----o--
 -----11--11--11--11--11--11--11--11--11--11--11--11--11--11-------
 ------------------------------------------------------------------
 --o------------------------------------------------------------o--
 ------------------------------------------------------------------

w/Distortion
 
 -------------------------------------------------------12-------------
 --12--12--10--10--9--9--9--7--7--12--12--10--10--9/10------9----------
 -------------------------------------------------H.On---------11------
 ----------------------------------------------------------------------
 ----------------------------------------------------------------------
 ----------------------------------------------------------------------
 -------On-Off---------
 --10--9/10\9----------
 --------------11------
 ------------------11--
 ----------------------
 ----------------------
 -------------------12--12---9---9---9-----------------------9----
 ---12--12--12--10--12--12---9---9---9--12--10--12--10--12---0----
 ---11--11--11--11--11--11--11--11--11--11--11--11--11--11--11----
 ---------------------------------------11--11--11--11--11--11----
 -----------------------------------------------------------------
 -----------------------------------------------------------------

4 Times
 
 --------------5-----------------
 --o--------5-----5-----------o--
 --------7-----------7-----7-----
 --------------------------------
 --o--5-----------------5-----o--
 --------------------------------

4 Times
 
 -----------------------7--7-----------------------------
 --o--------------7--7--------7--7--------------------o--
 -----------9--9--------------------9--9--------9--9-----
 --------------------------------------------------------
 --o--7--7--------------------------------7--7--------o--
 --------------------------------------------------------

4 Times
 
 ---------------0-------------------
 --o---------2-----2-----2-----2-o--
 ---------4-----------4-----4-------
 -----------------------------------
 --o---2-------------------------o--
 -----------------------------------

3 Times
 
 --------0-----------------(7)--------------
 -----------------0------------(7)--(0)--o--
 -------------------------------------------
 -----2-----2--4-----4--6-------------------
 ----------------------------------------o--
 -------------------------------------------
 -----5-------------------------------9---9---9---9---9---9---9---9----
 -----5-------------------------------9---9---9---9---9---9---9---9----
 -----7--7---------------------------11--11--11--11--11--11--11--11----
 -----7--------sl.-sl.-----sl.-------11--11--11--11--11--11--11--11----
 --5---------5-/-7-/-9---9-/-11--12---9---9---9---9---9---9---9---9----
 ----------------------------------------------------------------------
 ----------------------------------------------------------------------
 ------------Something like this at incredible speed:------------------
 --------?-------------------------------------------------------------
 ------?---?------------------------------------------------------9----
 ----?-------?-----------------------9----9-11-12-11-9----9-11-12--etc.
 --?-----------?--9-10-12-10-9-10-12---12--------------12--------------

[1/2] [1/2]  
 
 -----------------------------------14--16--16^--16------16^---16------
 --------------------------14-15-17------------------17----------------
 -----------11-13-14-/-16----------------------------------------------
 --11-12-14---------sl.------------------------------------------------
 ----------------------------------------------------------------------
 ----------------------------------------------------------------------

1/2 full full
 
 -------------------12------14--16--16^--16--17--19--19^-\---\-17--19^-
 -----------------------15-----------------------------------P.Off-----
 ---11------11--14-----------------------------------------------------
 -------12-------------------------------------------------------------
 ----------------------------------------------------------------------
 ----------------------------------------------------------------------

*slide with pick
 
 ------------------------------------------------full-------15--17--19-
 -------x----------------------------------------10^-\-10--------------
 -------x---------full-------------1/2---------------------------------
 -------x----------4^-\---4--6--7--6^-\--\4---6------------------------
 -------x-------------------------------P.Off--------------------------
 ----------------------------------------------------------------------

full
 
 --17^-\--17--15--17-
 --------------------
 --------------------
 --------------------
 --------------------
 --------------------

7:40
 
 ---------------------
 ---------------------
 ---7------9------7---
 ---7------9------7---
 ---5------7------5---
 ----------0----------

4 Times
 
 ---------------------------------------
 --o---------------------------------o--
 ---------------------------------------
 ---------------------4--5--4-----------
 --o---7--7-----5--7-----------5-----o--
 ------------7--------------------7-----
 -----------------------------------------------------------
 -----------------------------------------------------------
 -------------------------------------------7--------7------
 -------------------4-----------------4--5-----5--4-----4---
 ---7--7-----5--7------7--7-----5--7------------------------
 ---------7------------------7------------------------------
 -----------------------------------------------------
 -----------------------------------------------------
 -----------------------------------------------------
 --------------------4--5-----4-----------------------
 --7--7--7-----5--7-----------------7--5-----------5--
 -----------7--------------7-----7--------7--5--7-----
 --------------------------------------------------------
 --------------------------------------------------------
 --------------------------------------------------------
 -----------------------------7--4-----------------------
 --7--7--5-----------7--4--5--------5-----7--5--7--5-----
 -----------7--3--5--------------------7--------------7--
 ----------------------------------------------------
 ----------------------------------------------------
 ----------------------7--7-7-7---4------------------
 --5--5-5-5--4--4-4-4----------------5----------A.H.-
 ----------------------------------------7--5---7*---
 ---------------------------------------------------- 8:10

8:25 (not exact)
 
 P.M.------------- x4 P.M.---------
 ---------------------------------------------
 --o-------------------o---o---------------o--
 -----12--9--11--12--9-------9--5--7--9--5----
 ---------------------------------------------
 --o-------------------o---o---------------o--
 ---------------------------------------------
 P.M.------------- x4 x2
 --------------------------------------------------
 --o-------------------o---o--------------------o--
 -----12--9--11--12--9-----------5--0--2--5--0-----
 --------------------------------------------------
 --o-------------------o---o--3-----------------o--
 --------------------------------------------------
 ----------------------------------------12--
 ---------------------------5--7--8--10--12--
 --3---------------4--5--7-------------------
 -----2--4--5-/-7----------------------------
 ------------sl.-----------------------------
 --------------------------------------------
 -----------------------------------------------------------------------
 -----------------------------------------------------------------------
 ----------7--9--9/11--11--9-\7----7/9------1/2-------------7--9--9/11--
 ---7-/-9---------sl.------P.Off---sl.--9---7^-\--5--7-/-9--------------
 ----sl.----------------------------------------------sl.---------------
 -----------------------------------------------------------------------
 -----------------------------------
 -------8-/-10-\-8----10-/-12-\-10--
 --11----on---off-------on----off---
 -----------------------------------
 -----------------------------------
 -----------------------------------
 ----------15-15-15-15--15--14--12--14--14--12------12-\-7----10--7-----
 --12--13---------------------------------------15----sl.--8---------7--
 -----------------------------------------------------------------------
 -----------------------------------------------------------------------
 -----------------------------------------------------------------------
 -----------------------------------------------------------------------
 ------------------------------------------
 -----8--7----------------------------/15--
 --7---------------7--9--11--12--11--------
 ------------------------------------------
 -----------9--10--------------------------
 ------------------------------------------
 -------------------------------------------------10-------------------
 --12--10--12------12--10--12------12--10--12---------13----10---------
 ----------------------------------------------------------------------
 ----------------------------------------------------------------------
 ----------------------------------------------------------------------
 ----------------------------------------------------------------------
 ---------------------------------------------------------------
 ---12--10--12------12--10--12----------------------------------
 --------------9---------------9----12--11--12----------7-------
 ----------------9---------------9---------------9----------12--
 ---------------------------------------------------10----------
 ---------------------------------------------------------------
 ---------------------------------------------------------
 ---------------------------------------------12--10------
 ---12--11--12-----12--11--12-----12--11--12----------11--
 ---------------------------------------------------------
 ---------------------------------------------------------
 ---------------------------------------------------------
 ------------------------------------------------------
 ------------------------------12--10--12--10----------
 ---12--11--12----12--11--12-------------------12--11--
 ------------------------------------------------------
 ------------------------------------------------------
 ------------------------------------------------------

9:07
Chords:
[A] [/] [B] [/] [E] [/] [A]  
[A] [/] [B] [/] [E]  
 
 -----------------------------------------------------------------------
 -----------------------------------------------------------------------
 ------------7--4-----4--------------4--5-----7-/-9-----9-11-12--14-----
 ------4--5--------7-----5--4--5--7--------5---sl.--10------------------
 ---7-------------------------------------------------------------------
 -----------------------------------------------------------------------
 --------------------------------
 --------------------------------
 --12-/-14-\-12-\-11-----12--11--
 ----on---off--sl.----9----------
 --------------------------------
 --------------------------------
 -----------10------------------------------------full-------
 -----7--8------12-10-12-----------10-12-13----15-15^-\------
 --9----------------------12-11-12----------12-----------12--
 ------------------------------------------------------------
 ------------------------------------------------------------
 ------------------------------------------------------------

full full
 
 --------14--15--17^--17^--17--
 --/-17------------------------
 -sl.--------------------------
 ------------------------------
 ------------------------------
 ------------------------------

9:35
 
 ------------------------------------------------------------
 -------3----8-----------------------------------------------
 --2----4----9-----9----5----7--7--7--7--7--7----------------
 --2----4----9----10----5----7--7--7--7--7--7----2--4--5--4--
 --0----2----7-----7----3----5--5--5--5--5--5----2-----------
 -----------------------3----5--5--5--5--5--5----0-----------
 ------------------------------------
 --------3---------------------------
 ---2----2----5----5----5----7-------
 ---2----0----5----5----5----7----2--
 ---0---------2----3----3----5----2--
 -----------------------3----5----0--

w/bar Harm. w/ bar
 
 -------------------------------------------------
 --o-------------------------2--------------------
 ------------------0/\/---0------5-/\/\/----------
 ----------0-/-2-----------------5-/\/\/----------
 --o--------H.On-------3--------------------------
 ------0------------------------------------------

10:30
 
 Harm.--------------------------------------------- Repeat to fade
 ----12-12-12-12-------------------------------------------
 --o-------------12-12--7-7-7---------------7-7-7-------o--
 -----------------------------7-7--5-5-5-5---------7--7----
 ----------------------------------------------------------
 --o----------------------------------------------------o--
 ----------------------------------------------------------


Important: The song above is NOT stored on the Chordie server. The original song is hosted at www.xguitar.com. Chordie works as a search engine and provides on-the-fly formatting. Chordie does not index songs against artists'/composers' will. To remove this song please click here.

Text color:
Chord color:
Chord grids: 
Font size:    
Page size: 

A B E
Rate #2 of 3 versions

Login - add to songbook

SHARE PAGE  




You need to log in to post comments