Guitar Tabs, Chords and Lyrics
Major upgrade!! After one year development the new version of Chordie is now online! Please give feedback.


Lie   Dream Theater

 
 ||-----------------------------------||-||------------------------------------||
 ||o---------------------------------o||-||o----------------------------------o||
 ||-----------------------------------||-||------------------------------------||
 ||-----------------------------------||-||------------------------------------||
 ||o---------------------------------o||-||o----------------------------------o||
 ||--0-0-0-0-0-0-0-3-3-3-5-5-5-6-5-3--||-||--0-0-0-0-0-0-0-3-3-3-5-3-5-6-5-3---||

 


 


 S S S S S S S a S S S S S S S S S S S S S S S S S S S S S S S S S 3x


 

 
 |-----------------------------------||------------------------------------||
 |-----------------------------------||o----------------------------------o||
 |-----------------------------------||------------------------------------||
 |-----------------------------------||------------------------------------||
 |-------------------5-5---5-5---5h7-||o----------------------------------o||
 |-0-0-0-0-0-0-0-5s7-----7-----7-----||--0-0-0-0-0-0-0-3-3-3-5-3-5-6-5-3---||

 


 


 S S S S S S S a S S S S S S S S S S S S S S S S S S S S S S S S S 4x


 

 
 |-----------------------------------||------------------------------------||
 |-----------------------------------||o----------------------------------o||
 |-----------------------------------||------------------------------------||
 |-----------------------------------||------------------------------------||
 |-------------------5-5---5-5---5h7-||o----------------------------------o||
 |-0-0-0-0-0-0-0-5s7-----7-----7-----||--0-0-0-0-0-0-0-3-3-3-5-5-5-6-5-3---||

 


 


 S S S S S S S S S S S S S S S S 3x S S S S S S S a S S S S S S S S S


 

 
 ||-----------------------------------||-------------------------------------|
 ||o---------------------------------o||-------------------------------------|
 ||-----------------------------------||-------------------------------------|
 ||-----------------------------------||-------------------------------------|
 ||o---------------------------------o||-------------------5-5---5-5---5h7---|
 ||--0-0-0-0-0-0-0-3-3-3-5-3-5-6-5-3--||-0-0-0-0-0-0-0-5s7-----7-----7-------|

 


 


 S S S S S S S S S S S S S S S S 3x S S S S S S S a S S S S S S S S S


 

 
 ||-----------------------------------||-------------------------------------|
 ||o---------------------------------o||-------------------------------------|
 ||-----------------------------------||-------------------------------------|
 ||-----------------------------------||-------------------------------------|
 ||o---------------------------------o||-------------------5-5---5-5---5h7---|
 ||--0-0-0-0-0-0-0-3-3-3-5-3-5-6-5-3--||-0-0-0-0-0-0-0-5s7-----7-----7-------|

 


 


 S S S S S S S S S S S S S S S S 4x S S E +E E +E S S Q


 

 
 ||-----------------------------------||--------------------------|
 ||o---------------------------------o||--------------------------|
 ||-----------------------------------||--------------------------|
 ||-----------------------------------||--------------------------|
 ||o---------------------------------o||--------------------------|
 ||--0-0-0-0-0-0-0-3-3-3-5-5-5-6-5-3--||-5-3-5--(5)-5--(5)-0-0-6--|

 


 


 S S E +E E +E S S Q S S S S S S S S S S S S S S S S


 

 
 |------------------------||------------------------------------||
 |------------------------||o----------------------------------o||
 |------------------------||------------------------------------||
 |------------------------||------------------------------------||
 |------------------------||o----------------------------------o||
 |-5-3-5-(5)-5-(5)-0-0-3--||--0-0-0-0-0-0-0-3-3-3-5-3-5-6-5-3---||

 


 


 S S E +E E +E S S Q S S E +E E +E S S Q


 

 
 |------------------------|------------------------|
 |------------------------|------------------------|
 |------------------------|------------------------|
 |------------------------|------------------------|
 |------------------------|------------------------|
 |-5-3-5-(5)-5-(5)-0-0-6--|-5-3-5-(5)-5-(5)-0-0-3--|

 


 


 S S S S S S S S S S S S S S S S S S S S S S S S S S S S S S E


 

 
 ||-----------------------------------||-||-----------------------------------|
 ||o---------------------------------o||-||o----------------------------------|
 ||-----------------------------------||-||-----------------------------------|
 ||-----------------------------------||-||-----------------------------------|
 ||o---------------------------------o||-||o----------------------------------|
 ||--0-0-0-0-0-0-0-3-3-3-5-5-5-6-5-3--||-||--0-0-0-----0---0-0-0---0-0-5-3----|

 


 


 2/4 5/8


 S S S S S S S S S S S S S S E S S S S S S S S S S S S S S E S S


 

 
 |--------------------------------|-----------------|--------------------|
 |--------------------------------|-----------------|--------------------|
 |--------------------------------|-----------------|--------------------|
 |--------------------------------|-----------------|--------------------|
 |--------------------------------|-----------------|--------------------|
 |-0-0-0-----0---0-0-0---0-0-5-6\-|-0-0-0-----0---0-|-0-0---0-0-5-3-0-3--|

 


 


 $


 7/8 4/4


 H +E S S E S S S S S S S S S S S S S S S S 4x


 

 
 |-----------------||-||------------------------------------||
 |----------------o||-||o----------------------------------o||
 |-----------------||-||------------------------------------||
 |-----------------||-||------------------------------------||
 |--------------5-o||-||o----------------------------------o||
 |-2----(2)-5s7----||-||--0-0-0-0-0-0-0-3-3-3-5-5-5-6-5-3---||

 


 


 S S E +E E +E S S Q S S E +E E +E S S Q


 

 
 |------------------------|------------------------|
 |------------------------|------------------------|
 |------------------------|------------------------|
 |------------------------|------------------------|
 |------------------------|------------------------|
 |-5-3-5-(5)-5-(5)-0-0-6--|-5-3-5-(5)-5-(5)-0-0-3--|

 


 


 S S S S S S S S S S S S S S S S S S E +E E +E S S Q


 

 
 ||-----------------------------------||------------------------|
 ||o---------------------------------o||------------------------|
 ||-----------------------------------||------------------------|
 ||-----------------------------------||------------------------|
 ||o---------------------------------o||------------------------|
 ||--0-0-0-0-0-0-0-3-3-3-5-3-5-6-5-3--||-5-3-5-(5)-5-(5)-0-0-6--|

 


 


 To Coda


 S S E +E E +E S S Q S S S S S S S S S S S S S S S S 4x


 

 
 |------------------------||------------------------------------||
 |------------------------||o----------------------------------o||
 |------------------------||------------------------------------||
 |------------------------||------------------------------------||
 |------------------------||o----------------------------------o||
 |-5-3-5-(5)-5-(5)-0-0-3--||--0-0-0-0-0-0-0-3-3-3-5-3-5-6-5-3---||

 


 


 6/8


 E. E. E. E. E. E. E S S E


 

 
 ||-----------------------|----------------------|
 ||o----------------------|----------------------|
 ||-----------------------|----------------------|
 ||-----------------------|----------------------|
 ||o------1-----3---------|------1-----3------1--|
 ||--3---------------1----|-3-------------1h3----|

 


 


 1.,2.,3.


 E. E. E. E. E. E. S S S S E 3x


 

 
 |----------------------|-------------------------||
 |----------------------|------------------------o||
 |----------------------|-------------------------||
 |----------------------|--------------------3----||
 |------1-----3---------|------1-----3-1-3s5-----o||
 |-3---------------1----|-3-----------------------||

 


 


 4.


 E. E S S S S S E E. E. E. E.


 

 
 |-----------------------|-----------------------|
 |-----------------------|-----------------------|
 |-----------------------|-----------------------|
 |--------------------3--|------3-----5----------|
 |------1--1--3-1-3s5----|-5---------------3-----|
 |-3---------------------|-----------------------|

 


 


 E. E. E S S E E. E. E. E.


 

 
 |------------------------|----------------------|
 |------------------------|----------------------|
 |------------------------|----------------------|
 |------3-----5--------3--|------3-----5---------|
 |-5-------------3h=5-----|-5---------------3----|
 |------------------------|----------------------|

 


 


 E. E S S S S S E E. E. E. E.


 

 
 |-----------------------|-----------------------|
 |-----------------------|-----------------------|
 |--------------------5--|-----------------------|
 |------3--3--5-3-5s7----|-----------------------|
 |-5---------------------|------5-----7----------|
 |-----------------------|-7---------------5-----|

 


 


 E. E. E S S E E. E. E. E.


 

 
 |----------------------|-----------------------|
 |----------------------|-----------------------|
 |----------------------|-----------------------|
 |----------------------|-----------------------|
 |------5-----7------5--|------5-----7----------|
 |-7-------------5h7----|-7---------------5-----|

 


 


 E. E S S S S S E [4/4] Q. E +Q E +E


 

 
 |----------------------------||---------------------------|
 |----------------------------||o--------------------------|
 |----------------------------||---------------------------|
 |--------------------------7-||---------------------------|
 |-------5--5---7--5--7s=9----||o--------------------------|
 |-7--------------------------||--0---3--(3)--/12-(12)\----|

 


 


 1.


 7/8


 Q. E +E E +Q Q. E +Q E +E E E E E E E S S


 

 
 |-------------------|-----------------------|-------------------||
 |-------------------|-----------------------|------------------o||
 |-------------------|-----------------------|-------------------||
 |-------------------|-----------------------|-------------------||
 |-------------------|-----------------------|------------------o||
 |-0----5-(5)-6-(6)--|-0----3-(3)--/10-(10)\-|-7-0-0-6-0-0-3-2---||

 


 


 2.


 [3/4] E E E E E E [4/4] T T T T S S S S S S S S E S S E


 

 
 |-------------|-----------------------------------|
 |-------------|-----------------------------------|
 |-------------|-----------------------------------|
 |-------------|-----------------------------------|
 |-------------|-----------------------------------|
 |-7-0-0-6-0-0-|-0-0-0-0-0-----0---0-0-0----0-0----|

 


 


 S S S S S S S S S S S S S S S S S S S S S S S S S S E S S E


 

 
 |---------------------------------|--------------------------------|
 |---------------------------------|--------------------------------|
 |---------------------------------|--------------------------------|
 |---------------------------------|--------------------------------|
 |---------------------------------|--------------------------------|
 |-0-0-0-----0---0-0-0---0---0-0-0-|---0-0-----0---0-0-0---0-0------|

 


 


 S S S S S S S S S S S S S S S S S S S S S S S S S S E S S E


 

 
 |---------------------------------|---------------------------------|
 |---------------------------------|---------------------------------|
 |---------------------------------|---------------------------------|
 |---------------------------------|---------------------------------|
 |---------------------------------|---------------------------------|
 |-0-0-0-----0---0-0-0---0---0-0-0-|---0-0-----0---0-0-0----0-0------|

 


 


 S S S S S S S S S S S S S S S S S S S S S S S S S S E S S E


 

 
 |---------------------------------|--------------------------------|
 |---------------------------------|--------------------------------|
 |---------------------------------|--------------------------------|
 |---------------------------------|--------------------------------|
 |---------------------------------|--------------------------------|
 |-0-0-0-----0---0-0-0---0---0-0-0-|---0-0-----0---0-0-0---0-0------|

 


 


 S S S S S S S S S S S S S S S S S S S S S S S S S S S S S S E


 

 
 |---------------------------------|--------------------------------|
 |---------------------------------|--------------------------------|
 |---------------------------------|--------------------------------|
 |---------------------------------|--------------------------------|
 |---------------------------------|--------------------------------|
 |-0-0-0-----0---0-0-0---0---0-0-0-|-0-0-0-----0---0-0-0---0-0-5-3--|

 


 


 S S S S S S S S S S S S S S E S S S S S S S S S S S S S S E


 

 
 |-------------------------------|--------------------------------|
 |-------------------------------|--------------------------------|
 |-------------------------------|--------------------------------|
 |-------------------------------|--------------------------------|
 |-------------------------------|--------------------------------|
 |-0-0-0-----0---0-0-0---0-0-5-8-|-0-0-0-----0---0-0-0---0-0-5-3--|

 


 


 S S E +S E. E. S +S S S S S S S S S S S S S S S S S S E


 

 
 |-----------------------------|--------------------------------|
 |-----------------------------|--------------------------------|
 |-----------------------4-----|--------------------------------|
 |--------------5--7-(7)---7-5-|--------------------------------|
 |-----5-(5)-7-----------------|--------------------------------|
 |-5s7-------------------------|-0-0-0-----0---0-0-0---0-0-5-3--|

 


 


 S S S S S S S S S S S S S S S S S S S S S S S S S S S S S S S S


 

 
 |---------------------------------|-----------------------------------|
 |---------------------------------|-----------------------------------|
 |---------------------------------|-----------------------------------|
 |---------------------------------|-----------------------------------|
 |-------------5---------------5---|-----------------------------------|
 |-0-3-5-3-0-3---3-0-3-5-3-0-3---3-|-5-5-5-----5---5-5-5---5-5-5-5-5---|

 


 


 D.S. al Coda &


 S S S S S S S S S S S S S S S S S S S S S S S S S S S S S S S S 4x


 

 
 |---------------------------------||-------------------------------------||
 |---------------------------------||o-----------------------------------o||
 |---------------------------------||-------------------------------------||
 |---------------------------------||-------------------------------------||
 |-3-3-3-----3---3-5-5-5-5-5-5-5-5-||o-----------------------------------o||
 |---------------------------------||--0-0-0-0-0-0-0-3-3-3-5-5-5-6-5-3----||
 |-3-| |-3-| |-3-| |-3-|

 


 T T T T S. T T T T S. T T T T T T T T S. T T T T S. T T T T


 

 
 ||---------------------------------------------------------------|
 ||o--------------------------------------------------------------|
 ||---------------------------------------------------------------|
 ||---------------------------------------------------------------|
 ||o--------------------------------------------------------------|
 ||--5-6-5-0----5-6-5-0----5-6-5-0-5-6-5-0----5-6-5-0----5-6-5-0--|
 |-3-| |-3-| |-3-| |-3-|

 


 T T T T S. T T T T S. T T T T T T T T S. T T T T S. T T T T


 

 
 |---------------------------------------------------------------||
 |--------------------------------------------------------------o||
 |---------------------------------------------------------------||
 |---------------------------------------------------------------||
 |--------------------------------------------------------------o||
 |-6-7-6-0----6-7-6-0----6-7-6-0-6-7-6-0----6-7-6-0----6-7-6-0---||

 


 


 S S S S S S S S S S S S S S S S 3x S S S S S S S S S S S S S S S S


 

 
 ||-----------------------------------||----------------------------------|
 ||o---------------------------------o||----------------------------------|
 ||-----------------------------------||----------------------------------|
 ||-----------------------------------||----------------------------------|
 ||o---------------------------------o||----------------------------------|
 ||--0-0-0---0-0-0---0-0-0---0-0-0----||-2-2-2---2-2-2---2-2-2---2-2-2----|

 


 


 S S S S S S S S S S S S S S S S S S S S S S S S S S S S S S S S


 

 
 |---------------------------------|-----------------------------------|
 |---------------------------------|-----------------------------------|
 |---------------------------------|-----------------------------------|
 |---------------------------------|-----------------------------------|
 |---------------------------------|-----------------------------------|
 |-3-3-3---3-3-3---3-3-3---3-3-3---|-0-0-0---0-0-0---0-0-0---0-0-0-----|

 


 


 S S S S S S S S S S S S S S S S S S S S S S S S S S S S S S S S


 

 
 |---------------------------------|-----------------------------------|
 |---------------------------------|-----------------------------------|
 |---------------------------------|-----------------------------------|
 |---------------------------------|-----------------------------------|
 |-1-1-1---1-1-1---1-1-1---1-1-1---|-----------------------------------|
 |---------------------------------|-2-2-2---2-2-2---2-2-2---2-2-2-----|

 


 


 S S S S S S S S S S S S S S E S S S S S S S S S S S S S S E


 

 
 |---------------------------------|------------------------------------|
 |---------------------------------|------------------------------------|
 |---------------------------------|------------------------------------|
 |-7-7-7---7-7-7---7-7-7---7-7-7\--|------------------------------------|
 |---------------------------------|-1-1-1---1-1-1---1-1-1---1-1--------|
 |---------------------------------|-----------------------------13\----|

 


 


 T T T T S S S T T T T S T T T T S S S T T E


 

 
 ||-----------------------------------------------|
 ||o----------------------------------------------|
 ||-----------------------------------------------|
 ||-----------------------------------------------|
 ||o----------------------------------------------|
 ||--2-2-2-2-0-2---2-2-0-0-2-2-2-2-2-0-2---2-2-3--|

 


 


 T T T T S S S T T T T S T T T T S S S T T E


 

 
 |---------------------------------------------|
 |---------------------------------------------|
 |---------------------------------------------|
 |---------------------------------------------|
 |---------------------------------------------|
 |-2-2-2-2-0-2---2-2-0-0-2-2-2-2-2-0-2---2-2-3-|

 


 


 T T T T S S S T T T T S T T T T S S S T T E


 

 
 |---------------------------------------------|
 |---------------------------------------------|
 |---------------------------------------------|
 |---------------------------------------------|
 |---------------------------------------------|
 |-5-5-5-5-3-5---5-5-3-3-5-5-5-5-5-3-5---5-5-6-|

 


 


 T T T T S S S T T T T S S S S S S S E 3x


 

 
 |-----------------------------------------||
 |----------------------------------------o||
 |-----------------------------------------||
 |-----------------------------------------||
 |-------------------------------7-7-7-8\-o||
 |-5-5-5-5-3-5---5-5-3-3-5-5-5-5-----------||

 


 


 T T T T S S S T T T T S T T T T S S S T T E


 

 
 |---------------------------------------------|
 |---------------------------------------------|
 |---------------------------------------------|
 |---------------------------------------------|
 |---------------------------------------------|
 |-2-2-2-2-0-2---2-2-0-0-2-2-2-2-2-0-2---2-2-3-|

 


 


 T T T T S S S T T T T S T T T T S S S T T E


 

 
 |---------------------------------------------|
 |---------------------------------------------|
 |---------------------------------------------|
 |---------------------------------------------|
 |---------------------------------------------|
 |-2-2-2-2-0-2---2-2-0-0-2-2-2-2-2-0-2---2-2-3-|

 


 


 T T T T S S S T T T T S T T T T S S S T T E


 

 
 |---------------------------------------------|
 |---------------------------------------------|
 |---------------------------------------------|
 |---------------------------------------------|
 |---------------------------------------------|
 |-5-5-5-5-3-5---5-5-3-3-5-5-5-5-5-3-5---5-5-6-|

 


 


 S S S S S S S S S S S S S S S S S S S S S S S S S S S S S S S S


 

 
 |---------------------------------||-------------------------------------||
 |---------------------------------||o-----------------------------------o||
 |-2-0---2-0---2-0---2-0---0-------||-------------------------------------||
 |---------------------------3-----||-------------------------------------||
 |-----3-----3-----3-----3-----1---||o-----------------------------------o||
 |-------------------------------3-||--0-0---0-0-0---0-0-0---0-0-0---0----||

 


 


 [2/4] [4/4]  

 
 |-3-| |-3-| |-3-| |-3-|

 


 S S S S S S S S T T T T S. T T T T S. T T T T T T T T S. T T T T S. E


 

 
 |-----------------|--------------------------------------------------------*|
 |-----------------|--------------------------------------------------------*|
 |-----------------|--------------------------------------------------------*|
 |-----------------|--------------------------------------------------------*|
 |-----------------|--------------------------------------------------------*|
 |-0-0---0-0-0---0-|-5-6-5-0----5-6-5-0----5-6-5-0-6-7-6-0----6-7-6-0-------*|

 


 


 Duration Legend


 

 
 ---------------
 W - whole; H - half; Q - quarter; E - 8th; S - 16th; T - 32nd; X - 64th; a - acciaccatura

 


 + - note tied to previous; . - note dotted; .. - note double dotted


 Uncapitalized letters represent notes that are staccato (1/2 duration)


 Irregular groupings are notated above the duration line


 Duration letters will always appear directly above the note/fret number it represents the


 duration for. Duration letters with no fret number below them represent rests. Multi-


 bar rests are notated in the form Wxn, where n is the number of bars to rest for. Low


 melody durations appear below the staff


 


 Tablature Legend


 

 
 ----------------

 


 h - hammer-on


 p - pull-off


 b - bend


 pb - pre-bend


 r - bend release (if no number after the r, then release immediately)


 /\ - slide into or out of (from/to "nowhere")


 s - legato slide


 S - shift slide


 <n> - natural harmonic


 (n) - artificial harmonic


 n(n) - tapped harmonic


 ~ - vibrato


 tr - trill


 T - tap


 TP - trem. picking


 PM - palm muting


 \n/ - tremolo bar dip; n = amount to dip


 \n - tremolo bar down


 n/ - tremolo bar up


 /n\ - tremolo bar inverted dip


 = - hold bend; also acts as connecting device for hammers/pulls


 <> - volume swell (louder/softer)


 x - on rhythm slash represents muted slash


 o - on rhythm slash represents single note slash


 


 Misc Legend


 

 
 -----------


Important: The song above is NOT stored on the Chordie server. The original song is hosted at www.xguitar.com. Chordie works as a search engine and provides on-the-fly formatting. Chordie does not index songs against artists'/composers' will. To remove this song please click here.

This song is displayed as text-only. Transposing and tuning is only available for chordpro-songs.
Rate #6 of 6 versions

Jango Player

Login - add to songbook

SHARE PAGE  




You need to log in to post comments