Guitar Tabs, Chords and Lyrics
Major upgrade!! After one year development the new version of Chordie is now online! Please give feedback.


Blind Faith   Dream Theater

 
 --------- --------- -- -- -- -- -- --
 ---- -- -- ---- -- -- -- ---- --
 ---- --------- -- -- -- -- -- -- -- --
 --------- --------- -- -- -- -- -- -- -- --
 ---- -- -- -- -- -- -- -- -- -- --
 ---- -- -- -- ---- -- -- -- ----
 --------- -- -- -- -- -- -- -- -- 

 


 [--] 


 [--] [--] 


 [----] 


 


 


 

 
 E||------------------|------------------|------------------|------------------|
 B||------------------|------------------|------------------|------------------|
 G||------------------|------------------|------------------|------------------|
 D||------------------|------------------|------------------|------------------|
 A||------------------|------------------|------------------|------------------|
 E||------------------|------------------|------------------|------------------|
 A||------------------|------------------|------------------|------------------|
 -----------------------|-----------------------|-----------------------|
 -----------------------|-----------------------|-----------------------|
 -----------------------|-----------------------|-----------------------|
 -----------------------|-----------------------|-----------------------|
 --5-5-----3----5----5--|--3-3-----3----5----5--|--0-0-----0----3----3--|
 -----------------------|-----------------------|-----------------------|
 -----------------------|-----------------------|-----------------------|
 -----------------------|-----------------------|-----------------------|
 -----------------------|-----------------------|-----------------------|
 -----------------------|-----------------------|-----------------------|
 -----------------------|-----------------------|-----------------------|
 --3-3----------3----3--|--5-5-----3----5----5--|--3-3-----3----5----5--|
 ----------1------------|-----------------------|-----------------------|
 -----------------------|-----------------------|-----------------------|
 -----------------------|-----------------------|-----------3----------|
 -----------------------|-----------------------|--------1-------------|
 -----------------------|-----------------------|-----0----------------|
 -----------------------|-----------------------|----------------------|
 --0-0-----0----3----3--|--3-3----------3----3--|--3-------------------|
 -----------------------|----------1------------|----------------------|
 -----------------------|-----------------------|----------------------|
 -----------3----------|-----------3----------|-----------3----------|
 ----------------------|--------3-------------|--------3-------------|
 --------0-------------|-----2----------------|-----2----------------|
 -----0----------------|--0-------------------|--0-------------------|
 ----------------------|----------------------|----------------------|
 --3-------------------|----------------------|----------------------|
 ----------------------|----------------------|----------------------|
 -----------3----------|-----------3----------|-----------3----------|
 --------1-------------|----------------------|--------3-------------|
 -----0----------------|--------0-------------|-----2----------------|
 ----------------------|-----0----------------|--0-------------------|
 --3-------------------|----------------------|----------------------|
 ----------------------|--3-------------------|----------------------|
 ----------------------|----------------------|----------------------|
 -----------3----------|------------------|------------------|------------------|
 --------3-------------|------------------|------------------|------------------|
 -----2----------------|------------------|------------------|------------------|
 --0-------------------|------------------|------------------|------------------|
 ----------------------|------------------|------------------|------------------|
 ----------------------|------------------|------------------|------------------|
 ----------------------|------------------|------------------|------------------|
 ------------------|------------------|------------------|------------------|
 ------------------|------------------|------------------|------------------|
 ------------------|------------------|------------------|------------------|
 ------------------|------------------|------------------|------------------|
 ------------------|------------------|------------------|------------------|
 ------------------|------------------|------------------|------------------|
 ------------------|------------------|------------------|------------------|
 ------------------|--------------------------|--------------------------|
 ------------------|--------------------------|--------------------------|
 ------------------|--------------------------|--------------------------|
 ------------------|--------------------------|--------------------------|
 ------------------|--5-5-3-5---5-5-3-5-------|--5-5-0-5---5-5-0-5-------|
 ------------------|--------------------------|--------------------------|
 ------------------|--------------------------|--------------------------|
 --------------------------|--------------------------|
 --------------------------|--------------------------|
 --------------------------|--------------------------|
 --------------------------|--------------------------|
 --3-3-0-3---3-3-0-3-------|--3-3---3---3-3---3-------|
 --------------------------|------1---------1---------|
 --------------------------|--------------------------|
 --------------------------|--------------------------|
 --------------------------|--------------------------|
 --------------------------|--------------------------|
 --------------------------|--------------------------|
 --5-5-3-5---5-5-3-5-------|--5-5-0-5---5-5-0-5-------|
 --------------------------|--------------------------|
 --------------------------|--------------------------|
 --------------------------|--------------------------|-----------3----------|
 --------------------------|--------------------------|--------1-------------|
 --------------------------|--------------------------|-----0----------------|
 --------------------------|--------------------------|----------------------|
 --3-3-0-3---3-3-0-3-------|--3-3---3---3-3---3-------|--3-------------------|
 --------------------------|------1---------1---------|----------------------|
 --------------------------|--------------------------|----------------------|
 -----------3----------|-----------3----------|-----------3----------|
 ----------------------|--------3-------------|--------3-------------|
 --------0-------------|-----2----------------|-----2----------------|
 -----0----------------|--0-------------------|--0-------------------|
 ----------------------|----------------------|----------------------|
 --3-------------------|----------------------|----------------------|
 ----------------------|----------------------|----------------------|
 -----------3----------|-----------3----------|-----------3----------|
 --------1-------------|----------------------|--------3-------------|
 -----0----------------|--------0-------------|-----2----------------|
 ----------------------|-----0----------------|--0-------------------|
 --3-------------------|----------------------|----------------------|
 ----------------------|--3-------------------|----------------------|
 ----------------------|----------------------|----------------------|
 -----------3----------|----------3-----------|----------3-----------|
 --------3-------------|-------3-------3------|-------3-------3------|
 -----2----------------|--5-------------------|----------------------|
 --0-------------------|--5-------------------|--5-------------------|
 ----------------------|--3-------------------|--5-------------------|
 ----------------------|----------------------|--3-------------------|
 ----------------------|----------------------|----------------------|
 ----------0-----------|----------0-----------|----------3-----------|
 --3----3-------3------|--2----2-------2------|-------3-------3------|
 --2-------------------|--2-------------------|--5-------------------|
 --0-------------------|--2-------------------|--5-------------------|
 ----------------------|----------------------|--3-------------------|
 ----------------------|----------------------|----------------------|
 --5-------------------|--4-------------------|----------------------|
 ----------3-----------|----------------------|---------------------|
 -------3-------3------|----------------------|---------------------|
 ----------------------|----------------------|---------------------|
 --5-------------------|--3------2----3----0--|-----2----3----------|
 --5-------------------|--1-------------------|--1-------1----------|
 --3-------------------|----------------------|---------------------|
 ----------------------|----------------------|---------------------|
 ------------------------|------------------|------------------------|
 ------------------------|------------------|------------------------|
 ------------------------|------------------|------------------------|
 ------------------------|------------------|-----------2------------|
 ------------------------|-------5r---------|-----------0------------|
 --5--8--3--5---------1--|----3-------3-----|--5--8--3------------1--|
 ----------------5-------|---------------5--|----------------5-------|
 ------------------|------------------------|------------------|
 ------------------|------------------------|------------------|
 ------------------|------------------------|------------------|
 ------------------|------------------------|------------------|
 -------------3----|------------------------|-------5r---------|
 ----1--3-----1----|--5--8--3--5---------1--|----3-------3-----|
 ----------5-------|----------------5-------|---------------5--|
 ------------------------|------------------------|-------------------|
 ------------------------|------------------------|-------------------|
 ------------------------|------------------------|-------------------|
 -----------2------------|------------------------|-------------------|
 -----------0------------|-------------3----------|-------------------|
 --5--8--3------------1--|----1--3-----1----3--1--|--5----------------|
 ----------------5-------|----------5-------------|--5----------------|
 ------------------|------------------|------------------|------------------|
 ------------------|------------------|------------------|------------------|
 ------------------|------------------|------------------|------------------|
 ------------------|------------------|------------------|------------------|
 ------------------|------------------|------------------|------------------|
 ------------------|------------------|------------------|------------------|
 ------------------|------------------|------------------|------------------|
 ------------------|------------------|------------------|---------------------|
 ------------------|------------------|------------------|--------------3------|
 ------------------|------------------|------------------|--------------2------|
 ------------------|------------------|------------------|---------------------|
 ------------------|------------------|------------------|---------------------|
 ------------------|------------------|------------------|--5------5-----------|
 ------------------|------------------|------------------|--5------5-----------|
 ---------------------|---------------------|----------------------|
 --------------3------|--------------1------|----------------------|
 --------------2------|--------------2------|----------------------|
 ---------------------|---------------------|----------------------|
 ---------------------|---------------------|--3------3----0--2r---|
 --5------5-----------|--3------3-----------|--1------1------------|
 --5------5-----------|--3------3-----------|----------------------|
 ---------------------|---------------------|---------------------|
 --------------3------|--------------3------|--------------1------|
 --------------2------|--------------2------|--------------2------|
 ---------------------|---------------------|---------------------|
 ---------------------|---------------------|---------------------|
 --5------5-----------|--5------5-----------|--3------3-----------|
 --5------5-----------|--5------5-----------|--3------3-----------|
 ----------------------|-----------3----------|-----------3----------|
 ----------------------|--------1-------------|----------------------|
 ----------------------|-----0----------------|--------0-------------|
 ----------------------|----------------------|-----0----------------|
 --3------3----0--2r---|--3-------------------|----------------------|
 --1------1------------|----------------------|--3-------------------|
 ----------------------|----------------------|----------------------|
 -----------3----------|-------------------------|-----------3----------|
 --------3-------------|-------------------------|--------1-------------|
 -----2----------------|--12/-11/---9/---7/---4--|-----0----------------|
 --0-------------------|-------------------------|----------------------|
 ----------------------|--10/-9/----7/---5/---2--|--3-------------------|
 ----------------------|-------------------------|----------------------|
 ----------------------|-------------------------|----------------------|
 -----------3----------|-----------3----------|-----------3----------|
 ----------------------|--------3-------------|--------3-------------|
 --------0-------------|-----2----------------|-----2----------------|
 -----0----------------|--0-------------------|--0-------------------|
 ----------------------|----------------------|----------------------|
 --3-------------------|----------------------|----------------------|
 ----------------------|----------------------|----------------------|
 ----------3-----------|----------3-----------|----------0-----------|
 -------3-------3------|-------3-------3------|--3----3-------3------|
 --5-------------------|----------------------|--2-------------------|
 --5-------------------|--5-------------------|--0-------------------|
 --3-------------------|--5-------------------|----------------------|
 ----------------------|--3-------------------|----------------------|
 ----------------------|----------------------|--5-------------------|
 ----------0-----------|----------3-----------|----------3-----------|
 --2----2-------2------|-------3-------3------|-------3-------3------|
 --2-------------------|--5-------------------|----------------------|
 --2-------------------|--5-------------------|--5-------------------|
 ----------------------|--3-------------------|--5-------------------|
 ----------------------|----------------------|--3-------------------|
 --4-------------------|----------------------|----------------------|
 ----------------------|---------------------|------------------------|
 ----------------------|---------------------|------------------------|
 ----------------------|---------------------|------------------------|
 --3------2----3----0--|-----2----3----------|------------------------|
 --1-------------------|--1-------1----------|------------------------|
 ----------------------|---------------------|--5--8--3--5---------1--|
 ----------------------|---------------------|----------------5-------|
 ------------------|------------------------|------------------|
 ------------------|------------------------|------------------|
 ------------------|------------------------|------------------|
 ------------------|-----------2------------|------------------|
 -------5r---------|-----------0------------|-------------3----|
 ----3-------3-----|--5--8--3------------1--|----1--3-----1----|
 ---------------5--|----------------5-------|----------5-------|
 ------------------------|------------------|------------------------|
 ------------------------|------------------|------------------------|
 ------------------------|------------------|------------------------|
 ------------------------|------------------|-----------2------------|
 ------------------------|-------5r---------|-----------0------------|
 --5--8--3--5---------1--|----3-------3-----|--5--8--3------------1--|
 ----------------5-------|---------------5--|----------------5-------|
 ------------------------|------------------------|------------------|
 ------------------------|------------------------|------------------|
 ------------------------|------------------------|------------------|
 ------------------------|------------------------|------------------|
 -------------3----------|------------------------|------------------|
 ----1--3-----1----3--1--|--5---5--5------5-------|--------------3---|
 ----------5-------------|-----------0-------0----|--3---5---2-------|
 ------------------------|------------------|---------------------------|
 ------------------------|------------------|---------------------------|
 ------------------------|------------------|---------------------------|
 ------------------------|----------5-------|---------------------------|
 ------------------------|--3---5-------7---|---------------------------|
 --5---5--5-5----5--5----|------------------|--------5--5----------5----|
 -----------0-------0----|------------------|--0-3-5------0----0-0------|
 ------------------|------------------------|------------------|
 ------------------|------------------------|------------------|
 ------------------|------------------------|------------------|
 ------------------|------------------------|----------5-------|
 ------------------|------------------------|--3---5-------7---|
 --------------3---|--5---5--5-5----5--5----|------------------|
 --3---5---2-------|-----------0-------0----|------------------|
 ------------------------|------------------|------------------------------|
 ------------------------|------------------|------------------------------|
 ------------------------|------------------|------------------------------|
 --7---------------------|------------------|--10---10--10-10----10--10----|
 ------------------------|------------------|--8----8---8--8-----8---8-----|
 ------5--5-5----5--5----|--------------3---|------------------------------|
 -----------0-------0----|--3---5---2-------|------------------------------|
 ------------------|------------------------|------------------|
 ------------------|------------------------|------------------|
 ------------------|------------------------|------------------|
 ----------5-------|--2---2--2-2----2--2----|------------------|
 --3---5-------7---|--0---0--0-0----0--0----|--3---5---2-------|
 ------------------|------------------------|--------------3---|
 ------------------|------------------------|------------------|
 ------------------|------------------|------------------------|
 ------------------|------------------|------------------------|
 ------------------|------------------|--2---0---2----0--2--5--|
 ------------------|------------------|--2---0---2----0--2--5--|
 ------2-----------|------------------|------------------------|
 --5-------3---0---|--------------3---|------------------------|
 ------------------|--5---7---3-------|------------------------|
 ------------------|------------------------|------------------|
 ------------------|------------------------|------------------|
 --7---0---5---4---|--2---0---2----0--2--5--|--7---5---7---4---|
 --7---0---5---4---|--2---0---2----0--2--5--|--5---5---7---4---|
 ------------------|------------------------|------------------|
 ------------------|------------------------|------------------|
 ------------------|------------------------|------------------|
 ------------------------|------------------|------------------------|
 ------------------------|------------------|------------------------|
 --2---0---2----0--2--5--|--7---0---5---4---|--2---0---2----0--2--5--|
 --2---0---2----0--2--5--|--7---0---5---4---|--2---0---2----0--2--5--|
 ------------------------|------------------|------------------------|
 ------------------------|------------------|------------------------|
 ------------------------|------------------|------------------------|
 ----------------|--------------------------------|
 ----------------|--------------------------------|
 ----------------|--------------------------------|
 --5---4---------|-----7-9r-7-5-7-5---------------|
 ----------5--3--|--0---------------7-6-5---------|
 ----------------|------------------------8-5-8-5-|
 ----------------|--------------------------------|
 -------------------------------|----5-----5-----5-----5-----5-----|
 -------------------------------|--8b--5-8b--5-8b--5-8b--5-8b--5-8b|
 -------------------------------|----------------------------------|
 -------------------------------|----------------------------------|
 -------------------------------|----------------------------------|
 --3-----3-------------3---5~---|----------------------------------|
 ----7-5---7-5-0-3-5-7---7------|----------------------------------|
 --5-----5-----5-----5-----|----------------------------------|
 ----5-8b--5-8b--5-8b--5-8b|--12r-----10----10-13-10~---8-7-5-|
 --------------------------|-------------12-------------------|
 --------------------------|----------------------------------|
 --------------------------|----------------------------------|
 --------------------------|----------------------------------|
 --------------------------|----------------------------------|
 ---------------------------|---------------------------------|
 --------5------------------|-------8---5-7-5-----------------|
 --8-7-5---8-7-5------------|--7r-----7-------8-7-5---7-5-----|
 ----------------7-5--------|-----------------------7-----7-5-|
 --------------------7-5----|---------------------------------|
 ------------------------5~-|---------------------------------|
 ---------------------------|---------------------------------|
 --------------------------|--------------12----15/8--------12/5------------|
 --------------------------|--------13---------------10-8--------8-7-5-12/5-|
 --------------------------|--14--------------------------9-----------------|
 ------------------5---5-7-|------------------------------------------------|
 --7-6-5-------5-7---7-----|-----12----12----12-----------------------------|
 --------8-5-8-------------|------------------------------------------------|
 --------------------------|------------------------------------------------|
 ------------------------------|
 ------------------------------|
 --7-5-------------------------|
 ------7-5---5-----------------|
 ----------7---7-6-5-------5---|
 --------------------8-5-8---8-|
 ------------------------------|
 ---------------------------------------------------------17-|
 ---------------------10----------13----------17-------------|
 -----------11------9----------------------------12-13-14----|
 --------10----10-9------12-13-14----14-13-12----------------|
 --10-12-----------------------------------------------------|
 ------------------------------------------------------------|
 ------------------------------------------------------------|
 --15----------------------------------------|
 -----17-13-------------15-17-18-17-13-------|
 -----------14-14-16-17----------------14-12-|
 --------------------------------------------|
 --------------------------------------------|
 --------------------------------------------|
 --------------------------------------------|
 --15-12-8-15-12-8--------------12-5-0-12-5-0-------------|
 ------------------10-8-7-5-------------------------------|
 ---------------------------7-5-----------------8-7-5-----|
 ---------------------------------------------7-------7-5-|
 ---------------------------------------------------------|
 ---------------------------------------------------------|
 ---------------------------------------------------------|
 --------------------------|----------------------------------------------8-11-|
 --------------------------|-----12~-12-10-----------------------------10------|
 --------------------------|--12-----------12-11-9-------------------9---------|
 --7-----------7-------7-5-|-----------------------10----10-------10-----------|
 ----7-5---7-----7-6-5-----|--------------------------12----10-12--------------|
 --------5---5-------------|---------------------------------------------------|
 --------------------------|---------------------------------------------------|
 --12~-------------------------------|
 ------13----------------------------|
 ---------14-12----------------------|
 ---------------14-13-12----------10-|
 ------------------------15-12-10----|
 ------------------------------------|
 ------------------------------------|
 --------------------------------------------------------------------------|
 --------------------------------------------------------15-16-17-15-16-17-|
 --------------------------------------14-16-17-14-16-17-------------------|
 --------------------12-13-14-12-13-14-------------------------------------|
 --12-14-15-12-14-15-------------------------------------------------------|
 --------------------------------------------------------------------------|
 --------------------------------------------------------------------------|
 -----------------------------------------------|------------------|
 --------------------15-16-17-15-16-17-16-17-16-|------------------|
 --14-16-17-14-16-17----------------------------|------------------|
 -----------------------------------------------|------------------|
 -----------------------------------------------|--7---------------|
 -----------------------------------------------|--5--5-5-5--5--7--|
 -----------------------------------------------|------------------|
 -------------------------------|------------------|
 -------------------------------|------------------|
 -------------------------------|------------------|
 ----------------------5--------|------------------|
 --10---------8--7--5-----------|--7---------------|
 --8---8-8-8--------------8--7--|--5--5-5-5--5--7--|
 -------------------------------|------------------|
 --------------------------------------|------------------|
 --------------------------------------|------------------|
 --------------------------------------|------------------|
 -------------------9--5--7------------|------------------|
 --10---------8--7-----------10--8--7--|--7---------------|
 --8---8-8-8---------------------------|--5--5-5-5--5--7--|
 --------------------------------------|------------------|
 -------------------------------|------------------|
 -------------------------------|------------------|
 -------------------------------|------------------|
 ----------------------5--------|------------------|
 --10---------8--7--5-----------|--7---------------|
 --8---8-8-8--------------8--7--|--5--5-5-5--5--7--|
 -------------------------------|------------------|
 --------------------------------------|-------------------|--------------------|
 --------------------------------------|-------------------|--------------------|
 --------------------------------------|-------------------|--------------------|
 -------------------9--5--7------------|-------------------|--------------------|
 --10---------8--7-----------10--8--7--|--7----------7--9--|--10----------10----|
 --8---8-8-8---------------------------|--5--5-5-5-5-5--7--|--8---8-8-8-8-8-----|
 --------------------------------------|-------------------|--------------------|
 ------------------|------------------|-------------------|--------------------|
 ------------------|------------------|-------------------|--------------------|
 ------------------|------------------|-------------------|--------------------|
 ------------------|------------------|-------------------|--------------------|
 --5----------5----|--2----------2----|--7----------7--9--|--10----------10----|
 --3--3-3-3-3-3----|--0--0-0-0-0-0----|--5--5-5-5-5-5--7--|--8---8-8-8-8-8-----|
 ------------------|------------------|-------------------|--------------------|
 ------------------|---------------|------------------|
 ------------------|---------------|------------------|
 ------------------|---------------|------------------|
 ------------------|---------------|------------------|
 --5----------5----|--8--7-5-------|--7---------------|
 --3--3-3-3-3-3----|---------8--7--|--5--5-5-5--5--7--|
 ------------------|---------------|------------------|
 -------------------------------|------------------|
 -------------------------------|------------------|
 -------------------------------|------------------|
 ----------------------5--------|------------------|
 --10---------8--7--5-----------|--7---------------|
 --8---8-8-8--------------8--7--|--5--5-5-5--5--7--|
 -------------------------------|------------------|
 --------------------------------------|------|------|------|------|------|
 --------------------------------------|------|------|------|------|------|
 --------------------------------------|------|------|------|------|------|
 -------------------9--5--7------------|------|------|------|------|------|
 --10---------8--7-----------10--8--7--|------|------|------|------|------|
 --8---8-8-8---------------------------|------|------|------|------|------|
 --------------------------------------|------|------|------|------|------|
 ------|------|------|------|------|------|------------------------|
 ------|------|------|------|------|------|------------------------|
 ------|------|------|------|------|------|------------------------|
 ------|------|------|------|------|------|------------------------|
 ------|------|------|------|------|------|------------------------|
 ------|------|------|------|------|------|------------------------|
 ------|------|------|------|------|------|------------------------|
 ------------------|------------------------------|-------------------|
 ------------------|------------------------------|-------------------|
 ------------------|------------------------------|-------------------|
 ------------------|------------------------------|-------------------|
 ------------------|------------------------------|-------------------|
 --0---------------|--3------------------3--------|--0---------5--3---|
 --0--0-0-0--0--2--|--3--3-3-3--8--7--5-----3--2--|--0--0-0-0-------8-|
 ---------------------------------------|------------------|
 ---------------------------------------|------------------|
 ---------------------------------------|------------------|
 ---------------------------------------|------------------|
 --2------------------------------------|--3---------------|
 --0--0-0-0------8--7------5------------|--1--1-1-1--1--3--|
 ------------10--------10-----8--10--7--|------------------|
 -------------------------------|------------------|
 -------------------------------|------------------|
 -------------------------------|------------------|
 -------------------------------|------------------|
 --7---------2--3---------------|------------------|
 --5--5-5-5--------3--3-3-1--0--|--5---------------|
 -------------------------------|--5--5-5-5--5--7--|
 -------------------------------------|------------------|
 -------------------------------------|------------------|
 -------------------------------------|------------------|
 -------------------------------------|------------------|
 --3---------0--3---------3--2--------|--2---------------|
 --1--1-1-1--------3--3-3-------5--3--|--0--0-0-0--1--3--|
 -------------------------------------|------------------|
 ---------------------------|-----------------------------|------------------|
 ---------------------------|-----------------------------|------------------|
 ---------------------------|--------------------------2--|------------------|
 ---------------------2--3--|-----------------2--3--5-----|------------------|
 --7---------2--3--5--------|--------2--3--5--------------|--7---------------|
 --5--5-5-5-----------------|--3--5-----------------------|--5--5-5-5--5--7--|
 ---------------------------|-----------------------------|------------------|
 -------------------------------|------------------|
 -------------------------------|------------------|
 -------------------------------|------------------|
 ----------------------5--------|------------------|
 --10---------8--7--5-----------|--7---------------|
 --8---8-8-8--------------8--7--|--5--5-5-5--5--7--|
 -------------------------------|------------------|
 --------------------------------------|------------------|
 --------------------------------------|------------------|
 --------------------------------------|------------------|
 -------------------9--5--7------------|------------------|
 --10---------8--7-----------10--8--7--|--7---------------|
 --8---8-8-8---------------------------|--5--5-5-5--5--7--|
 --------------------------------------|------------------|
 -------------------------------|------------------|
 -------------------------------|------------------|
 -------------------------------|------------------|
 ----------------------5--------|------------------|
 --10---------8--7--5-----------|--7---------------|
 --8---8-8-8--------------8--7--|--5--5-5-5--5--7--|
 -------------------------------|------------------|
 --------------------------------------|-------------------|--------------------|
 --------------------------------------|-------------------|--------------------|
 --------------------------------------|-------------------|--------------------|
 -------------------9--5--7------------|-------------------|--------------------|
 --10---------8--7-----------10--8--7--|--7----------7--9--|--10----------10----|
 --8---8-8-8---------------------------|--5--5-5-5-5-5--7--|--8---8-8-8-8-8-----|
 --------------------------------------|-------------------|--------------------|
 ------------------|------------------|-------------------|--------------------|
 ------------------|------------------|-------------------|--------------------|
 ------------------|------------------|-------------------|--------------------|
 ------------------|------------------|-------------------|--------------------|
 --5----------5----|--2----------2----|--7----------7--9--|--10----------10----|
 --3--3-3-3-3-3----|--0--0-0-0-0-0----|--5--5-5-5-5-5--7--|--8---8-8-8-8-8-----|
 ------------------|------------------|-------------------|--------------------|
 ------------------|---------------|------------------|
 ------------------|---------------|------------------|
 ------------------|---------------|------------------|
 ------------------|---------------|------------------|
 --5----------5----|--8--7-5-------|--7---------------|
 --3--3-3-3-3-3----|---------8--7--|--5--5-5-5--5--7--|
 ------------------|---------------|------------------|
 -------------------------------|------------------|
 -------------------------------|------------------|
 -------------------------------|------------------|
 ----------------------5--------|------------------|
 --10---------8--7--5-----------|--7---------------|
 --8---8-8-8--------------8--7--|--5--5-5-5--5--7--|
 -------------------------------|------------------|
 --------------------------------------|------------------|
 --------------------------------------|------------------|
 --------------------------------------|------------------|
 -------------------9--5--7------------|------------------|
 --10---------8--7-----------10--8--7--|--2---------------|
 --8---8-8-8---------------------------|--0--0-0-0--1--3--|
 --------------------------------------|------------------|
 ---------------------------|-----------------------------|
 ---------------------------|-----------------------------|
 ---------------------------|--------------------------2--|
 ---------------------2--3--|-----------------2--3--5-----|
 --7---------2--3--5--------|--------2--3--5--------------|
 --5--5-5-5-----------------|--3--5-----------------------|
 ---------------------------|-----------------------------|
 ------------------------|------------------|------------------------|
 ------------------------|------------------|------------------------|
 ------------------2--5--|--7---0---5---4---|--2---0---2----0--2--5--|
 --2-------2-------2--5--|--7---0---5---4---|--2---0---2----0--2--5--|
 --0---5---0----5--0--3--|--5-------3---2---|--0-------0-------0--3--|
 ------3--------3--------|------3-----------|------3--------3--------|
 ------------------------|------------------|------------------------|
 ------------------|------------------------|------------------|
 ------------------|------------------------|------------------|
 --7---5---7---4---|--2---0---2----0--2--5--|--7---0---5---4---|
 --5---5---7---4---|--2---0---2----0--2--5--|--7---0---5---4---|
 --5---3---5---2---|--0-------0-------0--3--|--5-------3---2---|
 ------------------|------3--------3--------|------3-----------|
 ------------------|------------------------|------------------|
 ------------------------|----------------|------------------------|
 ------------------------|----------------|------------------------|
 --2---0---2----0--2--5--|----------------|------------------2--5--|
 --2---0---2----0--2--5--|--5---4---------|--2-------2-------2--5--|
 --0-------0-------0--3--|----------5--3--|--0---5---0----5--0--3--|
 ------3--------3--------|----------------|------3--------3--------|
 ------------------------|----------------|------------------------|
 ------------------|------------------------|------------------|
 ------------------|------------------------|------------------|
 --7---0---5---4---|--2---0---2----0--2--5--|--7---5---7---4---|
 --7---0---5---4---|--2---0---2----0--2--5--|--5---5---7---4---|
 --5-------3---2---|--0-------0-------0--3--|--5---3---5---2---|
 ------3-----------|------3--------3--------|------------------|
 ------------------|------------------------|------------------|
 ------------------------|------------------|------------------------|
 ------------------------|------------------|------------------------|
 --2---0---2----0--2--5--|--7---0---5---4---|--2---0---2----0--2--5--|
 --2---0---2----0--2--5--|--7---0---5---4---|--2---0---2----0--2--5--|
 --0-------0-------0--3--|--5-------3---2---|--0-------0-------0--3--|
 ------3--------3--------|------3-----------|------3--------3--------|
 ------------------------|------------------|------------------------|
 ----------------|----------------------------------|
 ----------------|----------------------------------|
 ----------------|----------------------------------|
 --5---4---------|----------------------------------|
 ----------5--3--|--5-5-5-5-5-5-5-5-3-3-3-3-3-3-3-3-|
 ----------------|----------------------------------|
 ----------------|----------------------------------|
 ----------------------------------|----------------------------------|
 ----------------------------------|----------------------------------|
 ----------------------------------|----------------------------------|
 ----------------------------------|----------------------------------|
 --2-2-2-2-2-2-2-2-1-1-1-1-1-1-1-1-|--5-5-5-5-5-5-5-5-3-3-3-3-3-3-3-3-|
 ----------------------------------|----------------------------------|
 ----------------------------------|----------------------------------|
 ----------------------------------|-------------------|-------------------|
 ----------------------------------|-------------------|-------------------|
 ----------------------------------|-------------------|-------------------|
 ----------------------------------|-------------------|-------------------|
 --2-2-2-2-2-2-2-2-1-1-1-1-1-1-1-1-|-------------------|--5----------------|
 ----------------------------------|--3----------------|--3----------------|
 ----------------------------------|--3----------------|-------------------|
 --------------------|--------------------|--------------------|
 --------------------|--------------------|--------------------|
 --------------------|--------------------|--7--------5--------|
 --------------------|--------------------|--------------------|
 --------------------|--------------------|--5--------3--------|
 --5--------3--------|--2--------1--------|--------------------|
 --5--------3--------|--2--------1--------|--------------------|
 --------------------|-------------------|-------------------|
 --------------------|-------------------|-------------------|
 --4--------3--------|-------------------|-------------------|
 --------------------|-------------------|-------------------|
 --2--------1--------|-------------------|--5----------------|
 --------------------|--3----------------|--3----------------|
 --------------------|--3----------------|-------------------|
 -------------------|-------------------|-------------------|-------------------|
 -------------------|-------------------|-------------------|-------------------|
 -------------------|-------------------|-------------------|-------------------|
 -------------------|-------------------|--5----------------|--5----------------|
 -------------------|-------------------|--3----------------|--5----------------|
 --5----------------|--3----------------|--3----------------|--3----------------|
 --5----------------|--3----------------|-------------------|-------------------|
 -------------------|-------------------|-------------------|-------------------|
 -------------------|-------------------|-------------------|-------------------|
 -------------------|-------------------|-------------------|-------------------|
 -------------------|-------------------|--5----------------|--5----------------|
 --5----------------|--5----------------|--3----------------|--5----------------|
 --5----------------|--5----------------|--3----------------|--3----------------|
 --5----------------|--5----------------|-------------------|-------------------|
 -------------------|-------------------|----------3-----------|
 -------------------|-------------------|-------3-------3------|
 -------------------|-------------------|--5-------------------|
 -------------------|-------------------|--5-------------------|
 --5----------------|--5----------------|--3-------------------|
 --5----------------|--5----------------|----------------------|
 --5----------------|--5----------------|----------------------|
 ----------3-----------|----------0-----------|----------0-----------|
 -------3-------3------|--3----3-------3------|--2----2-------2------|
 ----------------------|--2-------------------|--2-------------------|
 --5-------------------|--0-------------------|--2-------------------|
 --5-------------------|----------------------|----------------------|
 --3-------------------|----------------------|----------------------|
 ----------------------|--5-------------------|--4-------------------|
 ----------3-----------|----------3-----------|----------------------|
 -------3-------3------|-------3-------3------|----------------------|
 --5-------------------|----------------------|----------------------|
 --5-------------------|--5-------------------|--3------2----3----0--|
 --3-------------------|--5-------------------|--1-------------------|
 ----------------------|--3-------------------|----------------------|
 ----------------------|----------------------|----------------------|
 ---------------------|------------------------|------------------|
 ---------------------|------------------------|------------------|
 ---------------------|------------------------|------------------|
 -----2----3----------|------------------------|------------------|
 --1-------1----------|------------------------|-------5r---------|
 ---------------------|--5--8--3--5---------1--|----3-------3-----|
 ---------------------|----------------5-------|---------------5--|
 ------------------------|------------------|------------------------|
 ------------------------|------------------|------------------------|
 ------------------------|------------------|------------------------|
 -----------2------------|------------------|------------------------|
 -----------0------------|-------------3----|------------------------|
 --5--8--3------------1--|----1--3-----1----|--5--8--3--5---------1--|
 ----------------5-------|----------5-------|----------------5-------|
 ------------------|------------------------|------------------------|
 ------------------|------------------------|------------------------|
 ------------------|------------------------|------------------------|
 ------------------|-----------2------------|------------------------|
 -------5r---------|-----------0------------|-------------3----------|
 ----3-------3-----|--5--8--3------------1--|----1--3-----1----3--1--|
 ---------------5--|----------------5-------|----------5-------------|
 ------------------------|------------------|------------------------|
 ------------------------|------------------|------------------------|
 ------------------------|------------------|------------------------|
 ------------------------|------------------|-----------2------------|
 ------------------------|-------5r---------|-----------0------------|
 --5--8--3--5---------1--|----3-------3-----|--5--8--3------------1--|
 ----------------5-------|---------------5--|----------------5-------|
 ------------------|------------------------|------------------|
 ------------------|------------------------|------------------|
 ------------------|------------------------|------------------|
 ------------------|------------------------|------------------|
 -------------3----|------------------------|-------5r---------|
 ----1--3-----1----|--5--8--3--5---------1--|----3-------3-----|
 ----------5-------|----------------5-------|---------------5--|
 ------------------------|------------------------|-------------------|
 ------------------------|------------------------|-------------------|
 ------------------------|------------------------|-------------------|
 -----------2------------|------------------------|-------------------|
 -----------0------------|-------------3----------|-------------------|
 --5--8--3------------1--|----1--3-----1----3--1--|--5----------------|
 ----------------5-------|----------5-------------|--5----------------|
 ------------------|------------------|------------------|------------------||
 ------------------|------------------|------------------|------------------||
 ------------------|------------------|------------------|------------------||
 ------------------|------------------|------------------|------------------||
 ------------------|------------------|------------------|------------------||
 ------------------|------------------|------------------|------------------||
 ------------------|------------------|------------------|------------------||


Important: The song above is NOT stored on the Chordie server. The original song is hosted at www.xguitar.com. Chordie works as a search engine and provides on-the-fly formatting. Chordie does not index songs against artists'/composers' will. To remove this song please click here.

This song is displayed as text-only. Transposing and tuning is only available for chordpro-songs.
Rate #4 of 4 versions

Jango Player

Login - add to songbook

SHARE PAGE  



You need to log in to post comments