Guitar Tabs, Chords and Lyrics
Major upgrade!! After one year development the new version of Chordie is now online! Please give feedback.


Only a Matter of Time  Dream Theater

As recorded by Dream Theater
(From the 1989 Album WHEN DREAM AND DAY UNITE)
Words by Kevin Moore
Music by Dream Theater
Transcribed by Erik Alfredsson (Asmogriff) & Davide Costanzo
Gtr I (E A D G B E) - 'Distorted'
Gtr II (E A D G B E) - 'Keyboard'
Gtr III (E A D G B E) - 'Overdriven'
Gtr IV (E A D G B E) - 'Steel'
Keyboard Intro
Q=167
[C#5] [B5] [A5] [B5] 
[1/4] Gtr I[3/4] [4/4]
W H. +H Q H. +H H
 
 |-----|---------|---------------|---------|------------------|
 |-----|---------|---------------|---------|------------------|
 |-----|-6-------|-(6)-----4-----|-2-------|-(2)-----4--------|
 |-----|-6-------|-(6)-----4-----|-2-------|-(2)-----4--------|
 |-----|-4-------|-(4)-----2-----|-0-------|-(0)-----2--------|
 |-----|---------|---------------|---------|------------------|

|
| Gtr II
| Q H. +H E. S H. +Q. E E E E E
 
 |-----|---------|---------------|---------|-------------9-11-|
 |-----|-9-------|-(9)--------10-|-9-------|-(9)--------------|
 |-----|---------|--------11-----|---------|-------9-8--------|
 |-11--|---------|---------------|---------|-----------9------|
 |-----|---------|---------------|---------|------------------|
 |-----|---------|---------------|---------|------------------|

[C#5] [B5] [F#5] [B5] 
[3/4] H. +H Q H. [4/4] +H H
 
 |----------|---------------------|---------|-------------------------|
 |----------|---------------------|---------|-------------------------|
 |--6-------|--(6)-----4----------|---------|-------------4-----------|
 |--6-------|--(6)-----4----------|-4-------|-(4)---------4-----------|
 |--4-------|--(4)-----2----------|-4-------|-(4)---------2-----------|
 |----------|---------------------|-2-------|-(2)---------------------|

|
| ~~~~~~~~~~~~~~~ ~~~~~~~~~~~~~~
| H. +H S S S S H. +Q. +E E S S E E
 
 |-12-------|-(12)----11-12-11----|-9-------|-(9)---(9)\-11-12-11-9---|
 |----------|------------------12-|---------|-----------------------9-|
 |----------|---------------------|---------|-------------------------|
 |----------|---------------------|---------|-------------------------|
 |----------|---------------------|---------|-------------------------|
 |----------|---------------------|---------|-------------------------|

[C#5] [B5] [A5] [B5] 
[3/4] H. +H Q H. [4/4] +H H
 
 |----------|---------------|----------|------------------|
 |----------|---------------|----------|------------------|
 |--6-------|--(6)-----4----|--2-------|--(2)-----4-------|
 |--6-------|--(6)-----4----|--2-------|--(2)-----4-------|
 |--4-------|--(4)-----2----|--0-------|--(0)-----2-------|
 |----------|---------------|----------|------------------|

|
| ~~~~~~~~~~~~~~~ ~~~~~~~~~~~~~~~
| H. +H E E H. +H Q. E
 
 |-16-------|-(16)----19-17-|-16-------|-(16)-------------|
 |----------|---------------|----------|---------19----17-|
 |----------|---------------|----------|------------------|
 |----------|---------------|----------|------------------|
 |----------|---------------|----------|------------------|
 |----------|---------------|----------|------------------|

[C#5] [B5] [D5] [B5] 
[3/4] H. +H Q H. [4/4] +H H
 
 |----------|-----------------|----------|---------------||
 |----------|-----------------|----------|---------------||
 |--6-------|--(6)-------4----|--7-------|--(7)-----4----||
 |--6-------|--(6)-------4----|--7-------|--(7)-----4----||
 |--4-------|--(4)-------2----|--5-------|--(5)-----2----||
 |----------|-----------------|----------|---------------||

|
| ~~~~~~~~~~~~~~~ ~~~~~~~~~~~~~~~
| H. +Q. E E E H. +H H
 
 |----------|-----------------|----------|---------------||
 |-16-------|-(16)------16-17-|-19-------|-(19)----------||
 |----------|-----------------|----------|---------------||
 |----------|--------16-------|----------|---------11----||
 |----------|-----------------|----------|---------------||
 |----------|-----------------|----------|---------------||

Q=175
[C#5] [B5] [A5] [B5] 
[4/4] W [2/4] +Q Q [4/4] W [3/4] +Q H
 
 |----------|----------|----------|----------------|
 |----------|----------|----------|----------------|
 |-6--------|-(6)---4--|-2--------|-(2)---4--------|
 |-6--------|-(6)---4--|-2--------|-(2)---4--------|
 |-4--------|-(4)---2--|-0--------|-(0)---2--------|
 |----------|----------|----------|----------------|

|
| W +Q Q W +E E E E E E
 
 |----------|----------|----------|-----------9-11-|
 |-9--------|-(9)--10--|-9--------|-(9)------------|
 |----------|----------|----------|-----9-8--------|
 |----------|----------|----------|---------9------|
 |----------|----------|----------|----------------|
 |----------|----------|----------|----------------|

[C#5] [B5]  
[4/4] W [2/4] +Q Q
 
 |-----------------------|-------------|
 |-----------------------|-------------|
 |--6--------------------|-(6)----4----|
 |--6--------------------|-(6)----4----|
 |--4--------------------|-(4)----2----|
 |-----------------------|-------------|

|
| Q Q E S S E E E E E E
 
 |-12--14--12-14-12-11-9-|----------11-|
 |-----------------------|-10--9-12----|
 |-----------------------|-------------|
 |-----------------------|-------------|
 |-----------------------|-------------|
 |-----------------------|-------------|

[F#5] [B5]  
[4/4] W [3/4] +Q H
 
 |------------------------|----------------------|
 |------------------------|----------------------|
 |------------------------|---------4------------|
 |--4---------------------|-(4)-----4------------|
 |--4---------------------|-(4)-----2------------|
 |--2---------------------|-(2)------------------|

|
| |--3--|
| E S S S Q. E Q +E E E S S E E
 
 |-12-11h12p11-9-------9--|-(9)----11-12-11-9----|
 |------------------12----|-----10------------12-|
 |------------------------|----------------------|
 |------------------------|----------------------|
 |------------------------|----------------------|
 |------------------------|----------------------|

[C#5]  
[4/4] W [2/4] +H
 
 |----------------------------|--------------------|
 |----------------------------|--------------------|
 |--6-------------------------|-(6)----------------|
 |--6-------------------------|-(6)----------------|
 |--4-------------------------|-(4)----------------|
 |----------------------------|--------------------|

|
| E E E E a E E E E S S S S E E
 
 |-16-12----------------12-14-|-----------16-19-17-|
 |-------14----13h14-16-------|-----17-19----------|
 |----------13----------------|-16-----------------|
 |----------------------------|--------------------|
 |----------------------------|--------------------|
 |----------------------------|--------------------|

[A5] [B5] 
[4/4] W [3/4] +Q H
 
 |-------------------------------------------------|--------------------------------------------|
 |-------------------------------------------------|--------------------------------------------|
 |--2----------------------------------------------|-(2)-----------4----------------------------|
 |--2----------------------------------------------|-(2)-----------4----------------------------|
 |--0----------------------------------------------|-(0)-----------2----------------------------|
 |-------------------------------------------------|--------------------------------------------|

|
| S S S S S S S S S S S S S S S S S S S S T T S S S S S S S
 
 |-16-17-16----------16-17-19-17-16-17-16----16----|--------------------------------------------|
 |----------19-17-19----------------------19----19-|-17--19-17-16----17-16-------17-16----------|
 |-------------------------------------------------|--------------16-------18-16-------18-16----|
 |-------------------------------------------------|--------------------------------------------|
 |-------------------------------------------------|--------------------------------------------|
 |-------------------------------------------------|--------------------------------------------|

[C#5] [B5] 
[4/4] W [2/4] +Q Q
 
 |------------------------------------|--------------------------|
 |------------------------------------|--------------------------|
 |--6---------------------------------|-(6)-----------4----------|
 |--6---------------------------------|-(6)-----------4----------|
 |--4---------------------------------|-(4)-----------2----------|
 |------------------------------------|--------------------------|

|
| E. S Q S S S S S S S S S S S S S S S S
 
 |------------------------------------|--------------------------|
 |------------------------------------|--------------------------|
 |-13--16-13--14-13-------------13-14-|-16--14-13----14-13-------|
 |------------------16-14-14-16-------|-----------16-------16-14-|
 |------------------------------------|--------------------------|
 |------------------------------------|--------------------------|

[D5] [B5] 
[4/4] W [3/4] +Q H
 
 |-------------------------------------------------|-----------------------------------------||
 |-------------------------------------------------|-----------------------------------------||
 |--7----------------------------------------------|-(7)-----------4-------------------------||
 |--7----------------------------------------------|-(7)-----------4-------------------------||
 |--5----------------------------------------------|-(5)-----------2-------------------------||
 |-------------------------------------------------|-----------------------------------------||

|
| S S S S S S S S S S S S S S S S S S S S S S S S S S S S
 
 |-------------------------------------------------|-----------------------12-14-12----------||
 |-------------------------------------14----------|-----12-14-16-12-14-16----------16-14----||
 |----------13-------13-14-16-14-13-------16-14-13-|-14--------------------------------------||
 |-12-14-16----14-16----------------16-------------|-----------------------------------------||
 |-------------------------------------------------|-----------------------------------------||
 |-------------------------------------------------|-----------------------------------------||

Guitar Solo
Q=170
[C#5] [B5] [A5] [B5] 
[4/4] W [2/4] +Q Q [4/4] W [3/4] +Q H
 
 |------------------|------------|-----------------|---------------|
 |------------------|------------|-----------------|---------------|
 |--6---------------|--(6)---4---|-2---------------|-(2)---4-------|
 |--6---------------|--(6)---4---|-2---------------|-(2)---4-------|
 |--4---------------|--(4)---2---|-0---------------|-(0)---2-------|
 |------------------|------------|-----------------|---------------|

|
| Gtr III
| E E E E E E E E E E E E E E E E E E E E E E E E E E
 
 |------------------|---2--------|-----------------|-------------2-|
 |--------2-4-5-2-0-|------4-----|---5-4-5-2-5-4-5-|---------4-5---|
 |----1-2-----------|--------4---|-2---------------|-----2-4-------|
 |------------------|----------4-|-----------------|--2------------|
 |--4---------------|------------|-----------------|---------------|
 |------------------|------------|-----------------|---------------|

|
| Gtr II
| W +H E E E E E E E E E E E E E E
 
 |-16---------------|-(16)-------|-----------------|-------------2-|
 |--------2-4-5-2-0-|---7--4-----|---5-4-5-2-5-4-5-|---------4-5---|
 |----1-2-----------|--------4---|-2---------------|-----2-4-------|
 |------------------|----------4-|-----------------|--2------------|
 |--4---------------|------------|-----------------|---------------|
 |------------------|------------|-----------------|---------------|

[E] [E] [E] [E] [E] [E] [E] [E] [E] [E] [E] [E]  
[C#5] [B5] [F#5] [B5] 
[4/4] W [2/4] +Q Q [4/4] W [3/4] +Q H
 
 |-----------------|-----------|------------------|---------------|
 |-----------------|-----------|------------------|---------------|
 |-6---------------|-(6)---4---|------------------|-------4-------|
 |-6---------------|-(6)---4---|-4----------------|-(4)---4-------|
 |-4---------------|-(4)---2---|-4----------------|-(4)---2-------|
 |-----------------|-----------|-2----------------|-(2)-----------|

|
| E E E E E E E E E E E E E E E E E E E E E E E E E E
 
 |-----------------|-----------|-----------2-/6-7-|--6------------|
 |-----------2-----|-----------|---------2--------|-----7---------|
 |-----1-2-4---2-1-|-----------|-------3----------|-------6-------|
 |---2-------------|--4--2-1---|-----4------------|---------7-4-7-|
 |-4---------------|---------2-|---4--------------|---------------|
 |-----------------|-----------|-2----------------|---------------|

|
| E E E E E E E E E E E E E E E E E E E E E E E E E E
 
 |-----------------|-----------|-----------2-/6-7-|--6------------|
 |-----------2-----|-----------|---------2--------|-----7---------|
 |-----1-2-4---2-1-|-----------|-------3----------|-------6-------|
 |---2-------------|--4--2-1---|-----4------------|---------7-4-7-|
 |-4---------------|---------2-|---4--------------|---------------|
 |-----------------|-----------|-2----------------|---------------|

[C#5] [B5] [A5] [B5] 
[4/4] W [2/4] +Q Q [4/4] W [3/4] +Q H
 
 |-----------------|-----------|-----------------|--------------------|
 |-----------------|-----------|-----------------|--------------------|
 |-6---------------|-(6)---4---|-2---------------|-(2)-----4----------|
 |-6---------------|-(6)---4---|-2---------------|-(2)-----4----------|
 |-4---------------|-(4)---2---|-0---------------|-(0)-----2----------|
 |-----------------|-----------|-----------------|--------------------|

|
| E E E E E E E E E E E E E E E E E E E E E E E E E E
 
 |-----------4-----|-----------|-----------------|------0-----7----12-|
 |-----4-5-7-----4-|--5--7-4---|-----------------|--0------7----12----|
 |---6---------6---|---------4-|-------------8-9-|--------------------|
 |-6---------------|-----------|-7-------7-7-----|--------------------|
 |-----------------|-----------|---7-6-7---------|--------------------|
 |-----------------|-----------|-----------------|--------------------|

|
| E E E E E E E E E E E E E E E E E E E E E E E E E E
 
 |-----------4-----|-----------|-----------------|-----12----19----24-|
 |-----4-5-7-----4-|--5--7-4---|-----------------|-12-----19----24----|
 |---6---------6---|---------4-|-------------8-9-|--------------------|
 |-6---------------|-----------|-7-------7-7-----|--------------------|
 |-----------------|-----------|---7-6-7---------|--------------------|
 |-----------------|-----------|-----------------|--------------------|

[C#5] [B5] 
[4/4] W [2/4] +Q Q
 
 |----------------------------|-----------|
 |----------------------------|-----------|
 |--6-------------------------|-(6)---4---|
 |--6-------------------------|-(6)---4---|
 |--4-------------------------|-(4)---2---|
 |----------------------------|-----------|

|
| S S E E E E E E E E E E E
 
 |-16p12----------------------|-----------|
 |-------14-------------------|-----------|
 |----------13----------------|-----------|
 |-------------13-11----------|-----------|
 |-------------------14-11----|--7----6---|
 |-------------------------11-|-----7---7-|

|
| S S E E E E E E E E E E E
 
 |-28p24-21-------------------|-----------|
 |----------------------------|-----------|
 |----------13----------------|-----------|
 |-------------13-11----------|-----------|
 |-------------------14-11----|--7----6---|
 |-------------------------11-|-----7---7-|

[G5/D] [B5]  
[4/4] W [3/4] +Q H
 
 |--------------------|------------------------|
 |--------------------|------------------------|
 |-7------------------|-(7)-----4--------------|
 |-5------------------|-(5)-----4--------------|
 |-5------------------|-(5)-----2--------------|
 |--------------------|------------------------|

|
| E E E E E E E E E E Q. +E
 
 |--------------10-12-|-14--17-21b22====(21)r==|
 |---------7-10-------|------------------------|
 |-----7-9------------|------------------------|
 |---7----------------|------------------------|
 |-9------------------|------------------------|
 |--------------------|------------------------|

|
| E E E E E E E E E E Q. +E
 
 |--------------10-12-|-14--17-21b22====(21)r==|
 |---------7-10-------|------------------------|
 |-----7-9------------|------------------------|
 |---7----------------|------------------------|
 |-9------------------|------------------------|
 |--------------------|------------------------|

Pre-Verse
Q=140
N.C.
[4/4] ~~~~~~~~~~~~~~~~~~~~~~~~ ~~~~~~~~~~~~~~~~~~~~~~~~
E. S +Q H H H E. S +Q H H H
 
 |------------------|--------------|------------------|--------------||
 |------------------|--------------|------------------|--------------||
 |------6-(6)-------|--------------|------6-(6)-------|--------------||
 |-------------6----|---7-----4----|-------------6----|---7-----4----||
 |---4--------------|--------------|---4--------------|--------------||
 |------------------|--------------|------------------|--------------||

|
| ~~~~~~~~~~~~~~~~~~~~~~~~~~~~~~~~~~~~~
| +W +W +W +W
 
 |-(21)-------------|-(21)---------|-(21)-------------|-(21)---------||
 |------------------|--------------|------------------|--------------||
 |------------------|--------------|------------------|--------------||
 |------------------|--------------|------------------|--------------||
 |------------------|--------------|------------------|--------------||
 |------------------|--------------|------------------|--------------||

|
| ~~~~~~~~~~~~~~~~~~~~~~~~~~~~~~~~~~~~~
| +W +W +W +W
 
 |-(21)-------------|-(21)---------|-(21)-------------|-(21)---------||
 |------------------|--------------|------------------|--------------||
 |------------------|--------------|------------------|--------------||
 |------------------|--------------|------------------|--------------||
 |------------------|--------------|------------------|--------------||
 |------------------|--------------|------------------|--------------||

Verse
E. [C#5]S +Q [G#5]Q E E E [A5]E E E [F#5]Q E E E [C#5]S S E +E [G#5]Q E E E [A5]E E E [F#5]Q E E
 
 |------------------|------------------|--------------------|------------------|
 |------------------|------------------|--------------------|------------------|
 |------------------|------------------|--------------------|------------------|
 |----6-(6)---------|------------------|---6-6-6-(6)--------|------------------|
 |----4-(4)--6--6-6-|---7---7---4--4-4-|---4-4-4-(4)-6--6-6-|---7---7---4--4-4-|
 |-----------4--4-4-|---5---5---2--2-2-|-------------4--4-4-|---5---5---2--2-2-|

|
| Gtr IV
| E. S +Q Q E E E S S E E Q E E E S S E +E Q E E E S S E E Q E E
 
 |----0-(0)--0--0-0-|---0-0-0---0--0-0-|---0-0-0-(0)-0--0-0-|---0-0-0---0--0-0-|
 |----5-(5)--0--0-0-|---0-0-0---0--0-0-|---5-5-5-(5)-0--0-0-|---0-0-0---0--0-0-|
 |----6-(6)--1--1-1-|---2-2-2---4--4-4-|---6-6-6-(6)-1--1-1-|---2-2-2---4--4-4-|
 |------------------|-----------4--4-4-|--------------------|-----------4--4-4-|
 |------------------|------------------|--------------------|------------------|
 |------------------|------------------|--------------------|------------------|

E. [C#5]S +Q [G#5]Q E E E [A5]E E E [F#5]Q E E E [C#5]S S E +E [G#5]Q E E [A5]H [F#5]H
 
 |------------------|------------------|--------------------|--------------|
 |------------------|------------------|--------------------|--------------|
 |------------------|------------------|--------------------|--------------|
 |----6-(6)---------|------------------|---6-6-6-(6)--------|--------------|
 |----4-(4)--6--6-6-|---7---7---4--4-4-|---4-4-4-(4)-6--6-6-|-7----4-------|
 |-----------4--4-4-|---5---5---2--2-2-|-------------4--4-4-|-5----2-------|

|
| E. S +Q Q E E E S S E E Q E E E S S E +E Q E E H E E Q
 
 |----0-(0)--0--0-0-|---0-0-0---0--0-0-|---0-0-0-(0)-0--0-0-|-0----0-------|
 |----5-(5)--0--0-0-|---0-0-0---0--0-0-|---5-5-5-(5)-0--0-0-|-0----0---0---|
 |----6-(6)--1--1-1-|---2-2-2---4--4-4-|---6-6-6-(6)-1--1-1-|-2----4-4-----|
 |------------------|-----------4--4-4-|--------------------|------4-------|
 |------------------|------------------|--------------------|--------------|
 |------------------|------------------|--------------------|--------------|

[C#m7] [C#5]|-3-| |-3-|
E. S +Q E. S +Q E. S +Q E E E E E E
 
 |----0-(0)-----0-(0)--|----0-(0)--9-9-9---9-9-|
 |----0-(0)-----0-(0)--|----0-(0)--9-9-9---9-9-|
 |----4-(4)-----4-(4)--|----4-(4)--6-6-6---6-6-|
 |----2-(2)-----2-(2)--|----2-(2)--------------|
 |----4-(4)-----4-(4)--|----4-(4)--------------|
 |---------------------|-----------------------|

|
| |-3-| |-3-|
| E. S +Q E. S +Q E. S +Q E E E E E E
 
 |----0-(0)-----0-(0)--|----0-(0)--9-9-9---9-9-|
 |----0-(0)-----0-(0)--|----0-(0)--9-9-9---9-9-|
 |----4-(4)-----4-(4)--|----4-(4)--6-6-6---6-6-|
 |----2-(2)-----2-(2)--|----2-(2)--------------|
 |----4-(4)-----4-(4)--|----4-(4)--------------|
 |---------------------|-----------------------|

[C#m7] |-3-| |-3-|
E. S +Q E. S +Q E. S +Q E E E E E E
 
 |----0-(0)-----0-(0)--|----0-(0)---------------|
 |----0-(0)-----0-(0)--|----0-(0)---------------|
 |----4-(4)-----4-(4)--|----4-(4)------6-7-6----|
 |----2-(2)-----2-(2)--|----2-(2)------------6--|
 |----4-(4)-----4-(4)--|----4-(4)----4----------|
 |---------------------|-----------2------------|

|
| E. S +Q E. S +Q E. S +Q H
 
 |----0-(0)-----0-(0)--|----0-(0)---------------|
 |----0-(0)-----0-(0)--|----0-(0)---------------|
 |----4-(4)-----4-(4)--|----4-(4)---------------|
 |----2-(2)-----2-(2)--|----2-(2)---------------|
 |----4-(4)-----4-(4)--|----4-(4)---------------|
 |---------------------|------------------------|

Bridge
N.C.
~~~~~~~~~~~~~~~~~~~~~~~~~~~~~~~~~~~~~~~~~~~
H. Q W H H W
 
 |--------------|-----------|-------------|-------|
 |--------------|-----------|-------------|-------|
 |--------------|-----------|-------------|--4----|
 |--4--------6--|--7--------|--6-----7----|-------|
 |--------------|-----------|-------------|-------|
 |--------------|-----------|-------------|-------|

|
| H. Q W H H W
 
 |--------------|-----------|-------------|-------|
 |--------------|-----------|-------------|-12----|
 |-11-------13--|-14--------|-13----14----|-------|
 |--------------|-----------|-------------|-------|
 |--------------|-----------|-------------|-------|
 |--------------|-----------|-------------|-------|

~~~~~~~~~~~~~~~~~~~~~~~~~~~~~~~~~~~~~~~~~~~~~~~~~
H H W H H W
 
 |-------------|-----------|-------------|----------|
 |-------------|-----------|-------------|----------|
 |-------------|-----------|-------------|----------|
 |--7-----6----|--4--------|--5-----4----|-2--------|
 |-------------|-----------|-------------|----------|
 |-------------|-----------|-------------|----------|

|
| H H W H H W
 
 |-------------|-----------|-------------|----------|
 |-------------|-----------|-------------|----------|
 |-14----13----|-11--------|-12----11----|-9--------|
 |-------------|-----------|-------------|----------|
 |-------------|-----------|-------------|----------|
 |-------------|-----------|-------------|----------|

~~~~~~~~~~
|-3-| |-3-|
H +H E E E E E E E E S S S S
 
 |-------------|--------------------------||
 |-------------|---------------------2-3--||
 |-7----(7)----|-----------------2-4------||
 |-------------|-----------2-4-5----------||
 |-5----(5)----|-----2-4-5----------------||
 |-------------|-3-5----------------------||

|
| W W
 
 |-------------|--------------------------||
 |-------------|--------------------------||
 |-7-----------|--------------------------||
 |-------------|--------------------------||
 |-------------|--------------------------||
 |-------------|--------------------------||

Verse
N.C.
~~~~~~~~~~~~~~~~~~~~~ ~~~~~~~~~~~~~~~~~~~~~
E. S +Q H H H E. S +Q H H H
 
 |----------------|-----------|----------------|-----------|
 |----------------|-----------|----------------|-----------|
 |----6-(6)-------|-----------|----6-(6)-------|-----------|
 |-----------6----|-7----4----|-----------6----|-7----4----|
 |-4--------------|-----------|-4--------------|-----------|
 |----------------|-----------|----------------|-----------|

E. [C#5]S +Q [G#5]Q E E E [A5]E E E [F#5]Q E E E [C#5]S S E +E [G#5]Q E E [A5]H [F#5]H
 
 |------------------|------------------|--------------------|--------------|
 |------------------|------------------|--------------------|--------------|
 |------------------|------------------|--------------------|--------------|
 |----6-(6)---------|------------------|---6-6-6-(6)--------|--------------|
 |----4-(4)--6--6-6-|---7---7---4--4-4-|---4-4-4-(4)-6--6-6-|-7----4-------|
 |-----------4--4-4-|---5---5---2--2-2-|-------------4--4-4-|-5----2-------|

|
| Gtr IV
| E. S +Q Q E E E S S E E Q E E E S S E +E Q E E H E E Q
 
 |----0-(0)--0--0-0-|---0-0-0---0--0-0-|---0-0-0-(0)-0--0-0-|-0----0-------|
 |----5-(5)--0--0-0-|---0-0-0---0--0-0-|---5-5-5-(5)-0--0-0-|-0----0---0---|
 |----6-(6)--1--1-1-|---2-2-2---4--4-4-|---6-6-6-(6)-1--1-1-|-2----4-4-----|
 |------------------|-----------4--4-4-|--------------------|------4-------|
 |------------------|------------------|--------------------|--------------|
 |------------------|------------------|--------------------|--------------|

[C#m7] [C#5]|-3-| |-3-|
E. S +Q E. S +Q E. S +Q E E E E E E
 
 |----0-(0)-----0-(0)--|----0-(0)--9-9---9-9-9-|
 |----0-(0)-----0-(0)--|----0-(0)--9-9---9-9-9-|
 |----4-(4)-----4-(4)--|----4-(4)--6-6---6-6-6-|
 |----2-(2)-----2-(2)--|----2-(2)--------------|
 |----4-(4)-----4-(4)--|----4-(4)--------------|
 |---------------------|-----------------------|

|
| |-3-| |-3-|
| E. S +Q E. S +Q E. S +Q E E E E E E
 
 |----0-(0)-----0-(0)--|----0-(0)--9-9---9-9-9-|
 |----0-(0)-----0-(0)--|----0-(0)--9-9---9-9-9-|
 |----4-(4)-----4-(4)--|----4-(4)--6-6---6-6-6-|
 |----2-(2)-----2-(2)--|----2-(2)--------------|
 |----4-(4)-----4-(4)--|----4-(4)--------------|
 |---------------------|-----------------------|

[C#m] [E/Ab] [E5/A] |-3-| |-3-|
E. S +Q H E. S +Q E E E E E E
 
 |----0-(0)--0----|----0-(0)---------------||
 |----5-(5)--0----|----0-(0)---------------||
 |----6-(6)--1----|----2-(2)------6-7-6----||
 |----------------|---------------------6--||
 |----------------|-------------4----------||
 |----------------|-----------2------------||

|
| E. S +Q H E. S +Q H
 
 |----0-(0)--0----|----0-(0)---------------||
 |----5-(5)--0----|----0-(0)---------------||
 |----6-(6)--1----|----2-(2)---------------||
 |----------------|------------------------||
 |----------------|------------------------||
 |----------------|------------------------||

Bridge
N.C.
~~~~~~~~~~~ ~~~~~~~~~~~~~~~~
H H H Q +E +E H H H Q +E +E
 
 |------------|--------------------------|------------|-------------------------|
 |------10----|-12-----12b14===(12)r(12)-|------------|-------------------------|
 |------------|--------------------------|-9----13----|-14----14b16===(14)r(14)-|
 |-4----------|-(4)----------------------|------------|-------------------------|
 |------------|--------------------------|------------|-------------------------|
 |------------|--------------------------|------------|-------------------------|

W +W
~~~~~~~~~~~~~~~~ ~~~~~~~~~~~~~~~~~~~~~~~
H H H Q. +E W H H
 
 |-------------|----------------------|-----------|------------|
 |-------------|----------------------|-----------|------------|
 |-------11----|-13----13b14====(13)r-|-12--------|------------|
 |-12----------|----------------------|-----------|-10----9----|
 |-------------|----------------------|-----------|------------|
 |-------------|----------------------|-----------|------------|

~~~~~
 
 |-3--| |---3---| |-3--|

+W E E E S S E E S S S S E E E
 
 |------------|--------------------------------------||
 |------------|---------------------------------9-10-||
 |------------|----------------------------9-11------||
 |-(9)--------|----9-12-------9-12-9-12-13-----------||
 |------------|-10------10-10------------------------||
 |------------|--------------------------------------||

Verse
N.C.
~~~~~~~~~~~~~~~~
W +W H Q Q W
 
 |-----------|-------------|-4----5--7--|-4----|
 |-----------|-------------|-5----7--9--|-5----|
 |-11--------|-(11)--------|------------|------|
 |-----------|-------------|------------|------|
 |-----------|-------------|------------|------|
 |-----------|-------------|------------|------|

H Q Q W H Q Q
 
 |-5----4--5--|-5--------|-------8----7---|
 |-7----7--7--|-7--------|-8----(8)--(8)--|
 |------------|----------|-5----(5)--(5)--|
 |------------|----------|----------------|
 |------------|----------|----------------|
 |------------|----------|----------------|
 |-3-| |-3-| |-3-| |-3-|

Q H. W E E E E E E E E E E E E
 
 |-----8-------|----------|---------------------------||
 |-8--(8)------|-8--------|-----------------------3---||
 |-5--(5)------|-7--------|-----------------2-4-5-----||
 |-7--(7)------|-9--------|-----------2-4-5-----------||
 |-------------|----------|-----2-3-5-----------------||
 |-------------|----------|-3-5-----------------------||

Interlude
Q=200
N.C.
[3/4] Wx8
 
 |--------|
 |--------|
 |--------|
 |--------|
 |--------|
 |--------|

Q. E E E Q Q E E Q. E E E Q. E E E
 
 |------------|-----------|----------------|-------------|
 |------------|-----------|----------------|-------------|
 |------------|-----------|-8tr10---8------|-----------7-|
 |----------3-|-5--3------|-----------10-8-|-6----8-10---|
 |-3----5-6---|-------6---|----------------|-------------|
 |------------|-----------|----------------|-------------|
 PM------------|

S S E E E E E H E E H E E Q. E E E
 
 |-----------------|-----------|-----------|-------10-------||
 |-----------------|-----------|-----------|----------12----||
 |-----------------|-----------|-----------|-------------12-||
 |-8-8-10-8-6------|------6----|---------6-|----------------||
 |------------10-6-|-8------10-|-8----10---|-10-------------||
 |-----------------|-----------|-----------|----------------||

Bridge
Q=140
N.C.
[4/4]  
 
 PM-------------------------------------------------
 |-3-| |-3-| |-3-| |-3-| |-3-| |-3-| |-3-| |-3-|

[E] [E] [E] [E] [E] [E] [E] [E] [E] [E] [E] [E] [E] [E] [E] [E] [E] [E] [E] [E] [E] [E] [E] [E]  
 
 |-------------------------|-------------------------|
 |-------------------------|-------------------------|
 |-------------------------|-------------------------|
 |-------------------------|-------------------------|
 |-3-3-3-3-3-3-3-3-3-3-3-3-|-3-3-3-3-3-3-3-3-3-3-3-3-|
 |-------------------------|-------------------------|
 -------------------------------------------------|
 |-3-| |-3-| |-3-| |-3-| |-3-| |-3-| |-3-| |-3-|

[E] [E] [E] [E] [E] [E] [E] [E] [E] [E] [E] [E] [E] [E] [E] [E] [E] [E] [E] [E] [E] [E] [E] [E]  
 
 |-------------------------|-------------------------|
 |-------------------------|-------------------------|
 |-------------------------|-------------------------|
 |-------------------------|-------------------------|
 |-3-3-3-3-3-3-3-3-3-3-3-3-|-3-3-3-3-3-3-3-3-3-3-3-3-|
 |-------------------------|-------------------------|
 PM-------------------------------------------------
 |-3-| |-3-| |-3-| |-3-| |-3-| |-3-| |-3-| |-3-|

[E] [E] [E] [E] [E] [E] [E] [E] [E] [E] [E] [E] [E] [E] [E] [E] [E] [E] [E] [E] [E] [E] [E] [E]  
 
 |-------------------------|-------------------------|
 |-------------------------|-------------------------|
 |-------------------------|-------------------------|
 |-------------------------|-------------------------|
 |-3-3-3-3-3-3-3-3-3-3-3-3-|-3-3-3-3-3-3-3-3-3-3-3-3-|
 |-------------------------|-------------------------|
 -----------------------|
 |-3-| |-3-| |-3-| |-3-| |-3-| |-3-| |-3-| |-3-|

[E] [E] [E] [E] [E] [E] [E] [E] [E] [E] [E] [E] [E] [E] [E] [E] [E] [E] [E] [E] [E] [E] [E] [E]  
 
 |-------------------------|---------------------------|
 |-------------------------|---------------------------|
 |-------------------------|---------------------------|
 |-------------------------|---------------------------|
 |-3-3-3-3-3-3-3-3-3-3-3-3-|-3-3-3-3-3-3-3-3-3-3-3-3---|
 |-------------------------|---------------------------|

[C#5] [G#5] [A5] [F#5] [C#5] [G#5] [A5] [F#5] 
[B] [B] [B] [B] [B] [B] [B] [B]  
 
 |-----------|-----------|-----------|-----------||
 |-----------|-----------|-----------|-----------||
 |-6---------|-----------|-6---------|-----------||
 |-6----6----|-7----4----|-6----6----|-7----4----||
 |-4----6----|-7----4----|-4----6----|-7----4----||
 |------4----|-5----2----|------4----|-5----2----||

Verse
N.C.
PM--| PM PM PM PM PM--| PM PM PM PM
 
 |-3-| |-3-| |-3-| |-3-| |-3-| |-3-| |-3-| |-3-|

[E] [E] [E] [E] [E] [E] [E] [E] [E] [E] [E] [E] [E] [E] [E] [E] [E] [E] [E] [E] [E] [E] [E] [E]  
 
 ||--------------------------|-------------------------|
 ||o-------------------------|-------------------------|
 ||--------4---6-------------|-----------4-------------|
 ||----------------6---4---6-|-------4-------4---2---4-|
 ||o-4-4-4---4---4---4---4---|-2-2-2---2---2---2---2---|
 ||--------------------------|-------------------------|

PM--| PM PM PM PM| [2/4] PM PM PM[4/4]
 
 |-3-| |-3-| |-3-| |-3-| |-3--| |-3-| |--3--| |--3--| |--3--| |-3-|

E E E E E E E E E E E E E E E E E E E S S E E S S E E S S E E E E
 
 |-------------------------|--------------|-----------------------------------||
 |-------------------------|-9---10---9---|----------------------------------o||
 |-------8---9---8---6-----|--------------|-6-------6-------6-------6---------||
 |-6-6-6---6---6---6-------|---6----6---6-|---4-4-4---4-4-4---4-4-4---4-6-----||
 |---------------------0-0-|--------------|----------------------------------o||
 |-------------------------|--------------|-----------------------------------||

PM--| PM PM PM PM PM--| PM PM PM PM
 
 |-3-| |-3-| |-3-| |-3-| |-3-| |-3-| |-3-| |-3-|

[E] [E] [E] [E] [E] [E] [E] [E] [E] [E] [E] [E] [E] [E] [E] [E] [E] [E] [E] [E] [E] [E] [E] [E]  
 
 ||--------------------------|-------------------------|
 ||o-------------------------|-------------------------|
 ||--------4---6-------------|-----------4-------------|
 ||----------------6---4---6-|-------4-------4---2---4-|
 ||o-4-4-4---4---4---4---4---|-2-2-2---2---2---2---2---|
 ||--------------------------|-------------------------|

PM--| PM PM PM PM| [2/4] PM PM PM[4/4]
 
 |-3-| |-3-| |-3-| |-3-| |-3--| |-3-| |--3--| |--3--| |--3--| |--3--|

E E E E E E E E E E E E E E E E E E E S S E E S S E E S S E E S S E
 
 |-------------------------|--------------|------------------------------------||
 |-------------------------|-9---10---9---|-----------------------------------o||
 |-------8---9---8---6-----|--------------|-6-------6-------6-------6----------||
 |-6-6-6---6---6---6-------|---6----6---6-|---4-4-4---4-4-4---4-4-4---4-4-4----||
 |---------------------0-0-|--------------|-----------------------------------o||
 |-------------------------|--------------|------------------------------------||

Bridge
N.C.
PM--| PM PM PM--| PM PM
 
 |-3-| |-3-| |-3-| |-3-| |-3-| |-3-| |-3-| |-3-|

[E] [E] [E] [E] [E] [E] [E] [E] [E] [E] [E] [E] [E] [E] [E] [E] [E] [E] [E] [E] [E] [E] [E] [E]  
 
 |-------------------------|-------------------------|
 |-------------------------|-------------------------|
 |-------------------------|-------------------------|
 |-------2---4-------------|-------2---4-------------|
 |---------------5-4-2-----|-------------------2-4-5-|
 |-2-2-2---2---2-------5-4-|-2-2-2---2---2-4-5-------|

PM--| PM PM PM--| PM
 
 |-3-| |-3-| |-3-| |-3-| |-3-| |-3-| |-3-| |-3-|

[E] [E] [E] [E] [E] [E] [E] [E] [E] [E] [E] [E] [E] [E] [E] [E] [E] [E] [E] [E] [E] [E] [E] [E]  
 
 |-------------------------|---------------------------|
 |-------------------------|---------------------------|
 |---------------4-2-1-----|-------------1h2p1---------|
 |-------2---4---------4-2-|-------2---4-------4-2-0---|
 |-------------------------|---------------------------|
 |-0-0-0---0---0-----------|-0-0-0---0-----------------|
 |--3--| |--3--| |--3--| |--3--| |--3--| |--3--| |--3--| |--3--|

[E] [E] [E] [E] [E] [E] [E] [E] [E] [E] [E] [E] [E] [E] [E] [E] [E] [E] [E] [E] [E] [E] [E] [E]  
 
 |-------------------------------------|-------------------------------------|
 |-------------------------------------|-------------------------------------|
 |-11-------11-------13-------14-------|-11-------11-------13-------14-------|
 |----12-------12-------12-------12----|----12-------12-------12-------12----|
 |-------12-------12-------12-------12-|-------12-------12-------12-------12-|
 |-------------------------------------|-------------------------------------|
 |--3--| |--3--| |--3--| |--3--| |-3-| |-3-| |-3-| |-3--|

[E] [E] [E] [E] [E] [E] [E] [E] [E] [E] [E] [E] [E] [E] [E] [E] [E] [E] [E] [E] [E] [E] [E] [E]  
 
 |---------------------------------|-10p7-------------------------||
 |---------------------------------|------8---8-------------------||
 |-9-------7-------9-------7-------|--------7---7---7-------------||
 |---10------10------10------10----|--------------9---9----9------||
 |------10------10------10------10-|--------------------10---10---||
 |---------------------------------|------------------------------||

PM--| PM PM PM--| PM PM
 
 |-3-| |-3-| |-3-| |-3-| |-3-| |-3-| |-3-| |-3-|

[E] [E] [E] [E] [E] [E] [E] [E] [E] [E] [E] [E] [E] [E] [E] [E] [E] [E] [E] [E] [E] [E] [E] [E]  
 
 |-------------------------|-------------------------|
 |-------------------------|-------------------------|
 |-------------------------|-------------------------|
 |-------2---4-------------|-------2---4-------------|
 |---------------5-4-2-----|-------------------2-4-5-|
 |-2-2-2---2---2-------5-4-|-2-2-2---2---2-4-5-------|

PM--| PM PM PM--| PM
 
 |-3-| |-3-| |-3-| |-3-| |-3-| |-3-| |-3-| |-3-|

[E] [E] [E] [E] [E] [E] [E] [E] [E] [E] [E] [E] [E] [E] [E] [E] [E] [E] [E] [E] [E] [E] [E] [E]  
 
 |-------------------------|---------------------------|
 |-------------------------|---------------------------|
 |---------------4-2-1-----|-------------1h2p1---------|
 |-------2---4---------4-2-|-------2---4-------4-2-0---|
 |-------------------------|---------------------------|
 |-0-0-0---0---0-----------|-0-0-0---0-----------------|
 |--3--| |--3--| |--3--| |--3--| |--3--| |--3--| |--3--| |--3--|

[E] [E] [E] [E] [E] [E] [E] [E] [E] [E] [E] [E] [E] [E] [E] [E] [E] [E] [E] [E] [E] [E] [E] [E]  
 
 |-------------------------------------|-------------------------------------|
 |-------------------------------------|-------------------------------------|
 |-11-------11-------13-------14-------|-11-------11-------13-------14-------|
 |----12-------12-------12-------12----|----12-------12-------12-------12----|
 |-------12-------12-------12-------12-|-------12-------12-------12-------12-|
 |-------------------------------------|-------------------------------------|
 |--3--| |--3--| |--3--| |--3--| |--3--| |--3--| |--3--| |--3--|

[E] [E] [E] [E] [E] [E] [E] [E] [E] [E] [E] [E] [E] [E] [E] [E] [E] [E] [E] [E] [E] [E] [E] [E]  
 
 |-------------------------------------|---------------------------------------||
 |-------------------------------------|----------------------------15---------||
 |-14-------14-------16-------17-------|-14-------16-------17------------------||
 |----15-------15-------15-------15----|----15-------15-------15-------15------||
 |-------15-------15-------15-------15-|-------15-------15-------15-------15---||
 |-------------------------------------|---------------------------------------||

Verse
[C5] >
W +W W W
 
 |-----------|-------------|----------|------|
 |-----------|-------------|----------|------|
 |-----------|-------------|----------|------|
 |-10--------|-(10)--------|----------|------|
 |-10--------|-(10)--------|----------|------|
 |--8--------|--(8)--------|----------|------|

>
W +W W W
 
 |-----------|-------------|----------|-------------|
 |-----------|-------------|----------|-------------|
 |-----------|-------------|----------|-------------|
 |-10--------|-(10)--------|----------|-------------|
 |-10--------|-(10)--------|----------|-------------|
 |--8--------|--(8)--------|----------|-------------|

|
| Gtr II
| W W W H Q Q
 
 |-----------|-------------|----------|-------------|
 |-----------|-------------|----------|-------------|
 |-----------|-------------|----------|---------12--|
 |-----------|-------------|----------|-------------|
 |-----------|-------------|----------|-------------|
 |-----------|-------------|----------|-------------|

Bridge
[C5] W [G5] W [Bb5] W [F5] W
 
 |-----------|----------------------|--------------|-----------------------|
 |-----------|----------------------|--------------|-----------------------|
 |-----------|----------------------|--------------|-----------------------|
 |-10--------|---5------------------|--8-----------|--3--------------------|
 |-10--------|---5------------------|--8-----------|--3--------------------|
 |--8--------|---3------------------|--6-----------|--1--------------------|

|
 
 | |--3---| |--3---|

| W +H. +E E E H. Q H. +E E E
 
 |-15--------|-(15)------(15)-13h15p|=13-----------|-----------------------|
 |-----------|----------------------|----------13--|---------------13------|
 |-----------|----------------------|--------------|------------------12---|
 |-----------|----------------------|--------------|-15-------(15)---------|
 |-----------|----------------------|--------------|-----------------------|
 |-----------|----------------------|--------------|-----------------------|

[C5] W [G5] W [Bb5] W [F5] H H
 
 |-----------|----------------------|--------------|-------------||
 |-----------|----------------------|--------------|-------------||
 |-----------|----------------------|--------------|-------------||
 |-10--------|---5------------------|--8-----------|--3----x\----||
 |-10--------|---5------------------|--8-----------|--3----x\----||
 |--8--------|---3------------------|--6-----------|--1----------||

|
| |--3---|
| W +H. +E E E H. Q W
 
 |-15--------|-(15)------(15)-13h15p|=13-----------|-------------||
 |-----------|----------------------|----------13--|-------------||
 |-----------|----------------------|--------------|-------------||
 |-----------|----------------------|--------------|-15----------||
 |-----------|----------------------|--------------|-------------||
 |-----------|----------------------|--------------|-------------||

Chorus
[C5] W [G5]W [Bb5]W [F5]W
 
 ||------------|----------|----------|-------||
 ||o-----------|----------|----------|------o||
 ||------------|----------|----------|-------||
 ||--10--------|-5--------|-8--------|-3-----||
 ||o-10--------|-5--------|-8--------|-3----o||
 ||---8--------|-3--------|-6--------|-1-----||

Guitar Solo
[C5] W [G5] W
 
 |-------------------------|---------------------|
 |-------------------------|---------------------|
 |-------------------------|---------------------|
 |-10----------------------|--5------------------|
 |-10----------------------|--5------------------|
 |--8----------------------|--3------------------|

|
| Gtr III
| ~~~~~~~~~~~~~
 
 | |---3---|

| H. +E E E H. +E S S
 
 |-------------------------|---------------------|
 |-18b20=======(18)r-18-17-|-15-------(15)-15-17-|
 |-------------------------|---------------------|
 |-------------------------|---------------------|
 |-------------------------|---------------------|
 |-------------------------|---------------------|

[Bb5] W [F5] W
 
 |---------------|-------------------------|
 |---------------|-------------------------|
 |---------------|-------------------------|
 |--8------------|--3----------------------|
 |--8------------|--3----------------------|
 |--6------------|--1----------------------|

|
| ~~~~~~~~~~~~~~~~~~
 
 | |--3--| |--3--|

| H Q Q H E E E E E E
 
 |---------------|-------------------13-17-|
 |-18----17--15--|-------------15-17-------|
 |---------------|-17----14-17-------------|
 |---------------|-------------------------|
 |---------------|-------------------------|
 |---------------|-------------------------|

[C5] W [G5] W
 
 |-----------------------|------------------|
 |-----------------------|------------------|
 |-----------------------|------------------|
 |-10--------------------|---5--------------|
 |-10--------------------|---5--------------|
 |--8--------------------|---3--------------|

|
| ~~~
| Q. E H +H Q Q
 
 |-15----19b20-19b20=====|=(19)r----17--15--|
 |-----------------------|------------------|
 |-----------------------|------------------|
 |-----------------------|------------------|
 |-----------------------|------------------|
 |-----------------------|------------------|

[Bb5] W [F5] W
 
 |------------------|--------------------------------||
 |------------------|--------------------------------||
 |------------------|--------------------------------||
 |--8---------------|--3-----------------------------||
 |--8---------------|--3-----------------------------||
 |--6---------------|--1-----------------------------||

|
| ~~~
| |--3---|
| H Q Q Q +E E E Q. +E
 
 |-17b18----17--15--|-14b15===(14)r14-12-13----(13)\-||
 |------------------|--------------------------------||
 |------------------|--------------------------------||
 |------------------|--------------------------------||
 |------------------|--------------------------------||
 |------------------|--------------------------------||

Keyboard Solo
[E5]W [F#5] W
 
 |-------------------------|---------------------------------|
 |-------------------------|---------------------------------|
 |-------------------------|-----------------------------

Important: The song above is NOT stored on the Chordie server. The original song is hosted at www.xguitar.com. Chordie works as a search engine and provides on-the-fly formatting. Chordie does not index songs against artists'/composers' will. To remove this song please click here.

Text color:
Chord color:
Chord grids: 
Font size:    
Page size: 

A5 B B5 Bb5 C#5 C#m C#m7 C5 D5 E E/Ab E5 E5/A F#5 F5 G#5 G5 G5/D
Rate #1 of 1 versions

Login - add to songbook

SHARE PAGE  




You need to log in to post comments