Guitar Tabs, Chords and Lyrics
Major upgrade!! After one year development the new version of Chordie is now online! Please give feedback.


The Dirty Glass  Dropkick Murphys

Blackout
Chords used:
[D] [G] [C]  
 
 |-2------3---------0----------
 |-3------3---------1----------
 |-2------0---------0----------
 |-0------0---------2----------
 |--------2---------3----------
 |--------3---------------------

Intro:
 
 |------------------------------------------------------------------------------2-------|
 |---3-------------3--------------3---------3------------3-----3----------------3-------|
 |-2----2-------2----2--------------0----0-----0-----------0------0-------------2-------|
 |-0-------0----0-------0-------0--------0--------0--0-------0--------0-4-0-----0-------|
 |------------------------------3p0------------------3p0--------------------------------|
 |--------------------------------------------------------------------------------------|

It does this three times, the second time it does not hit the D chord at the end
Pre-verse:
[D] [G] [C] [G]  
Does that a few times then it turns the distortion off and goes to the verse:
[D] [G] [C] [G]  
Does that a lot of times
Chorus:
[D] [G] [C] [G]  
There thatā??s everything, the order is easier, and thereā??s another little part but itā??s just a shorter version of the intro. Enjoy!

Important: The song above is NOT stored on the Chordie server. The original song is hosted at www.xguitar.com. Chordie works as a search engine and provides on-the-fly formatting. Chordie does not index songs against artists'/composers' will. To remove this song please click here.

Text color:
Chord color:
Chord grids: 
Font size:    
Page size: 

C D G
Rate #5 of 9 versions

Login - add to songbook

SHARE PAGE  




You need to log in to post comments