Guitar Tabs, Chords and Lyrics
Major upgrade!! After one year development the new version of Chordie is now online! Please give feedback.


I Wish You Peace  Eagles

Patti Davis & Bernie Leadon
Eagles
One of These Nights
[1975]  
I Wish You Peace is one of Leadon's best songs. At first I
thought it was mostly synthesizer, but then noticed that
there was an acoustic in the background, so you guys get chords.
Have fun, and good luck imitating Bernie's wonderful vocals.
 
 --------------------------------------------------------------------------------INTRO (Synthesizer written for Guitar):

I wish you...
[A5] [E] [D] [A/C#] [Bm7] [E7] [A] [D] [Asus2] [C#m7] 
[+] [+] [+] [+] [+] [+] [+] [+] [+] [+] [+] [+] [+] [+] [+] [+] [+] [+] [+] [+]  
 
 e:-12------12------|-10------9-------|-----------------|---------------14-|-12--------------|
 B:-10------12------|-10------10------|-10------9-------|-14------------15-|-10--------------|
 G:-9-------13------|-11------9-------|-7-------7-------|-14------------14-|-9---------------|
 D:---------14------|-12------11------|-9-------9-------|-14---------------|-11--------------|
 A:-0---------------|-----------------|-----------------|-0----------------|-----------------|
 E:---------0-------|-10------9-------|-7-------0-------|------------------|-----------------|
 --------------------------------------------------------------------------------Asus2 C#m7 Bm Asus2

I wish you peace when the cold winds blow
[B5] [E5] [B9/D#] Warmed [B9]by the fire's gl[Bm7]ow[F6] [E6] [Bb7sus2]
[Asus2] I wish you co[C#m7]mfort in the.[Bm]..the lonely [Asus2]times[A9/C#]
[D] Arms to h[C#m7]old you when you[E] ache inside[Asus2] [E]
 
 --------------------------------------------------------------------------------I wish you hope when things are going bad

Kind words when times are sad
I wish you shelter from the...the ragin' wind
[D] Coolin' water[C#m7]s at the[E] fever's en[A]d
 
 -------------------------------------------------------------------------------- A7sus4 D E A A9

I wish you peace when times are hard
[D] A light to guid[E]e you through the da[Asus2]rk[A7]
And when [D] storms are h[C#m7]igh and your[C#7]...your dreams are [F#m]low[F]
[A] I wish you the stren[E]gth to let love gr[Bm]ow [D] Ahhh
[A] I wish you the stren[E]gth to let love fl[D]ow[Dm] [A]
 
 --------------------------------------------------------------------------------Fill 1

[E9+5]  
[+] [+]  
 
 e:---------2-------|
 B:-------1---------|
 G:-----1-----------|
 D:---2-------------|
 A:-----------------|
 E:-0---------------|
 --------------------------------------------------------------------------------Guitar Solo

(same chords as last verse)
 
 --------------------------------------------------------------------------------I wish you peace when times are hard

A light to guide you through the dark
And when storms are high and your...your dreams are low
[A] I wish you the stren[E]gth to let love gro[Bm]w[D]
[Asus2] I wish you the stren[E]gth to let love flo[Bm]w[D]
[Asus2] I wish you the stren[E]gth to let love glo[Bm]w[D]
[Asus2] I wish you the stren[E]gth to let love go[D] [Dm] [A]
 
 --------------------------------------------------------------------------------CHORDS:

Asus2 x02200 F6 xx3231
B5 xx440x E6 xx2120
E5 xx240x A7sus4 x02030
B9 x21222 A9 xx2003
B9/D# xx1222 A9/C# x4200x
Bb7sus2 x13111
For any chords I didn't list, check here.

Important: The song above is NOT stored on the Chordie server. The original song is hosted at www.xguitar.com. Chordie works as a search engine and provides on-the-fly formatting. Chordie does not index songs against artists'/composers' will. To remove this song please click here.

Text color:
Chord color:
Chord grids: 
Font size:    
Page size: 

A A/C# A5 A7 A9/C# Asus2 B5 B9 B9/D# Bb7sus2 Bm Bm7 C#7 C#m7 D Dm E E5 E6 E7 E9+5 F F#m F6
Rate #1 of 2 versions

Login - add to songbook

SHARE PAGE  




You need to log in to post comments