Guitar Tabs, Chords and Lyrics
Server problems seems to be fixed. Chordie has been experiencing problems with songs disappearing. These issues now seems to be fixed, but still verifying the fix. If you find anything strange, please email admin@chordie.com.


Scarlet Rose  Edguy

/\/\/\/\/\/\/\/\/\/\/\/\/\/\/\/\/\/\/\/\/\/\/\/\/\
< Title: The Scarlet rose >
< Artist: Edguy >
< Album: Vain glory opera >
< >
< Trancribed by: Niklas Lehto >
< >
< Send your comments, suggestion e.t.c to: >
< dreadman@mail.bip.net >
< http://www.sarctica.cjb.net >
\/\/\/\/\/\/\/\/\/\/\/\/\/\/\/\/\/\/\/\/\/\/\/\/\/
*Disable word wrap under edit to view this document correctly!
Tablature explanation:
h = hammer on . = Palm mute
p = pull off A.H = Artificial harmonics
b = Bend pb = prebend
r = release bend s = slide
[Intro + verse] 
Am F(add9,maj, maj7) Csus2 G
 
 e||----------------3-----1-----0---|----------------------------------|
 B||1-----0-----1-----1-----1-----1-|1-----1-----1h3p1-0-------0-------|
 G||--2-----2-----0-----2-----2-----|--0-----0-----------0---0---0---0-|
 D||----2-----2---------------------|----0-----0-----------0-------0---|
 A||--------------------------------|----------------------------------|
 E||--------------------------------|----------------------------------|

|| |
 
 e||0---------------0---------------|0-----0-----0h1p0-----------------|
 B||------3-----1---------3-----1---|--1---------------3-------3-------|
 G||--------------------------------|----------------------------------|
 D||--------------------------------|----------------------------------|
 A||--------------------------------|----------------------------------|
 E||--------------------------------|----------------------------------|

[Verse1] 
The moment when you held me tight won't come back any more.
And at the end of that night you slammed the door
My dream it died away just when I saw red.
[Am] [Csus2] [F]  
 
 e||----------------------0-----1---|0-----------0---------------------|
 B||1-----0-----1---1-------3-------|--1---3-1-------1-----------------|
 G||--2-----2-----0---0-------0---0-|----2-----2---2-------------------|
 D||----2-----2---------0-----------|----------------------------------|
 A||--------------------------------|----------------------------------|
 E||--------------------------------|----------------------------------|

|| |
 
 e||0-------------------------------|------------0---------------------|
 B||------3-----1----0----1-----3---|1-----3---------1-----------------|
 G||--------------------------------|----------------------------------|
 D||--------------------------------|----------------------------------|
 A||--------------------------------|----------------------------------|
 E||--------------------------------|----------------------------------|

And nothing but a memory is left inside my head...
[Bridge] 
[Dm] [G]  
 
 e||1-------1-------1-------0h1p0-----|3-------3---------3-----------3-----|
 B||3---------------------------------|--------------------0-----------0---|
 G||2---2-------2-------2---------2---|----0-------0---0-----0h2p0-0-----0-|
 D||0---------------------------------|------------------------------------|
 A||----------------------------------|------------------------------------|
 E||----------------------------------|------------------------------------|

Nothing is forever in life but a memory believe it's true.
[Dm] [Em] [F] [Gsus4]  
 
 e||1-------1-------1-------0h1-----|--------------------1---3----------|
 B||----------------------------3---|--------------------1---3----------|
 G||----2-------2-------2---------2-|------------0-------2---5----------|
 D||--------------------------------|2---2---2-------3-------5----------|
 A||--------------------------------|2---2---2-------3-------5----------|
 E||--------------------------------|0---0---0-------1-------3----------|

P.M
And when I gaze in the rain I'm cryin just for you.
[Fill in:] 
...has died...
 
 C Cmaj7/B Am Dm G e||---------------------------|
 The scarlet rose has died. Lost inside the night. B||------5------3------1------|
 G||---------------------------|
 Em Am D||---------------------------|
 Left in my mind like a dream all full of pride. A||---------------------------|
 F G E||---------------------------|

The scarlet rose has died.
...inside the night...
 
 e||---------------------------|
 B||------0------1------3------|
 G||---------------------------|
 D||---------------------------|
 A||---------------------------|
 E||---------------------------|

[Sbort lead] 
 
 e||-----------------------------------------------------|------------------------------------------------|
 B||------------5------8-h10-10------8-p5-5--------------|------------------------------------------------|
 G||--------5-7----------------------------------7-5-5---|-------4h5---7---5---7---5---4---5------7p5p4---|
 D||----5-7--------------------------------------------5-|7-----------------------------------------------|
 A||5-7--------------------------------------------------|------------------------------------------------|
 E||-----------------------------------------------------|------------------------------------------------|

[Verse 2] 
The one and only way to catch the beauty of a dawn
Is to take a picture of the growin sun
I got that experience no one could steel away
One moment of your life is mine I remember day by day.
[Bridge] 
[Dm] [G]  
 
 e||1-------1-------1-------0h1p0-----|3-------3---------3-----------3-----|
 B||----------------------------------|--------------------0-----------0---|
 G||----2-------2-------2---------2---|----0-------0---0-----0h2p0-0-----0-|
 D||----------------------------------|------------------------------------|
 A||----------------------------------|------------------------------------|
 E||----------------------------------|------------------------------------|

Nothing is forever in life but a memory believe it's true.
[Dm] [Em] [F5] [G5]  
 
 e||1-------1-------1-------0h1-----|0---0---0---0----------------------|
 B||----------------------------3---|0---0---0---0----------------------|
 G||----2-------2-------2---------2-|0---0---0---0----------------------|
 D||--------------------------------|2---2---2---2---3-------5----------|
 A||--------------------------------|2---2---2---2---3-------5----------|
 E||--------------------------------|0---0---0---0---1-------3----------|

Hit your distortion pedal or footswitch or whatever.
And when I gaze in the rain I'm cryin just for you.
[Cborus] 
(Same fills as in 1st chorus, remember to transpose them 3 semitiones up.)
[D#5]The [D5/D#]scarlet rose has [C5]died. [F5]Lost inside the [A#5]night.
[G5]Left in my mind like a [C5]dream all full of pride.
[G#5]The scarlet rose has [A#5]died.
[Pre-solo] 
[G#] [D#]  
 
 e||------------------11-11-11-|11-s10-10-10-10-s8-8-8-8-s6-6-6-6-s4-4-4-|
 B||6s8-h9-p8-6-8--------------|-----------------------------------------|
 G||---------------------------|-----------------------------------------|
 D||---------------------------|-----------------------------------------|
 A||---------------------------|-----------------------------------------|
 E||---------------------------|-----------------------------------------|

|| |
 
 e||---------------------------|-----------------------------------------|
 B||------------------13-13-13-|13-s11-11-11-11-s9-9-9-9-s8-8-8-8-s6-6-6-|
 G||---------------------------|-----------------------------------------|
 D||---------------------------|-----------------------------------------|
 A||---------------------------|-----------------------------------------|
 E||---------------------------|-----------------------------------------|

[G#] [D#]  
 
 e||------------------11-11-11-|11-s13-13-13-13-s10-10-10----------------|
 B||6s8-h9-p8-6-8--------------|-----------------------------------------|
 G||---------------------------|--------------------------8---A.H--------|
 D||---------------------------|------------------------------10b12------|
 A||---------------------------|-----------------------------------------|
 E||---------------------------|-----------------------------------------|

|| |
 
 e||------------------8--8--8--|8--s10-10-10-10-s6--6--6-----------------|
 B||3s4-h6-p4-3-4--------------|-----------------------------------------|
 G||---------------------------|--------------------------8---7----------|
 D||---------------------------|--------------------------8---7----------|
 A||---------------------------|--------------------------6---5----------|
 E||---------------------------|-----------------------------------------|

Hit it once more!
[Solo] 
[C5] [G#5] [D#5] [C5] [G#5] [D#5]  
 
 e||-------------------------------|-------|----------------------------|---------------------------|
 B||--------------A.H--------------|-------|---------------A.H-------8b9|8-------8b9r8-----10---8---|
 G||--------7-8-8b10------7b8r7----|-------|---------7-8-8b10-----------|---------------------------|
 D||10-----------------------------|8------|10--------------------------|---------------------------|
 A||-------------------------------|-------|----------------------------|---------------------------|
 E||-------------------------------|-------|----------------------------|---------------------------|

[C5] [G#5] [D#5] [G#5]  
 
 e||--------------------8--10--|10b11-----8-10---10s11-11s13-|13b15---release-slowly-13b15-13b15-|
 B||11---b13---11---11---------|-----------------------------|-----------------------------------|
 G||---------------------------|-----------------------------|-----------------------------------|
 D||---------------------------|-----------------------------|-----------------------------------|
 A||---------------------------|-----------------------------|-----------------------------------|
 E||---------------------------|-----------------------------|-----------------------------------|

A#5 (Palmmuted 8:ths)
 
 e||13-11-11-10-10------------------------|
 B||---------------13---------------------|
 G||------------------13-12---------------|
 D||------------------------13-12---------|
 A||------------------------------13s1----|
 E||--------------------------------------|

[A#5] [G#5] [A#5] [D#5]  
 
 e||---------------------------------------------------|----------|
 B||---------------------------------------------------|----------|
 G||--------------------------------8-7-8-10b12r10-8-7-|8---------|
 D||------------5---5-6-5-6-10-8-10--------------------|----------|
 A||6-5-6-8-6-8---8------------------------------------|----------|
 E||---------------------------------------------------|----------|

. . . . . . . . . . . . . . . . . .
[Repeat cborus and fade out] 

Important: The song above is NOT stored on the Chordie server. The original song is hosted at www.xguitar.com. Chordie works as a search engine and provides on-the-fly formatting. Chordie does not index songs against artists'/composers' will. To remove this song please click here.

Text color:
Chord color:
Chord grids: 
Font size:    
Page size: 

A#5 Am C5 Csus2 D# D#5 Dm Em F F5 G G# G#5 G5 Gsus4
Rate #2 of 5 versions

Jango Player

Login - add to songbook

SHARE PAGE  



You need to log in to post comments