Guitar Tabs, Chords and Lyrics
Major upgrade!! After one year development the new version of Chordie is now online! Please give feedback.


Rags to Rags  EELS

Rags To Rags The Eels
From: andyns@juno.com (Andy N Smith)
RIFF 1 RIFF 2
 
 E----------------------- E--------0-----------1------
 B-----1-------1--------- B--1--------1--1--------1---
 G---2-------2----------- G--2-----------2-------------
 D-2-----2-3------------- D--2--2--------3--3---------
 A----------------------- A----------------------------
 E----------------------- E---------------------------

RIFF 3 RIFF 4
 
 E----0-----------1---------- E--------------------
 B----1-----------1---------- B------------------
 G-------2-----------2------- G------0-------0----
 D-2--------2--3--------2--- D----2---2---0---0--
 A--------------------------- A--3-------2--------
 E--------------------------- E-------------------

INTRO
Riff 1
Riff 1
Riff 2
Riff 2
Riff 3
VERSE
Riff 1
There's a spider crawling
Riff 1
On the bathroom mirror
Riff 2 Riff 4
Right on top of my right eye
Riff 3
And I can't stop staring back
Riff 3
How did I get this way
Riff 3 G C F C
Take a big look at a living lie
CHORUS
[G]Rags to [C]Rags and rust to [F]rust[C]
How d'you stand when you get crushed
So rags to riches was a bust
Riff1
Riff1
VERSE
Riff1
Sometimes I dream about
Riff1
What its like back home
Riff1 Riff 4
The railroad tracks and the pussy willow
Riff 3
But I had to leave it
Riff 3
Now I go back
Riff 3 G C F C
Living(?) my tired head hits the pillow
CHORUS
[G-C-F-C]Rags to rags and rust to rust
How do you stand when you get crushed
Bflat F
So rags to riches was a bust
Bflat F
Busted once again
But I'll show them one day
That I can buy myself a world (???)
SOLO
(over chorus chords)
 
 E--------------------------------------------------------
 B---------------------------------------8-8-8-8/10-10----
 G--7-7-7-7-5-4--------------------7-7-7------------------
 D--------------5-7-5-5-5-5h7-5---------------------------
 A--------------------------------------------------------
 E--------------------------------------------------------
 E--------------10---15-----20----------------------------
 B-------/13----------------------------------------------
 G--------------------------------------------------------
 D--------------------------------------------------------
 A--------------------------------------------------------
 E--------------------------------------------------------

RIFF 1
RIFF 1
VERSE
Riff 2
One day I'll come through
Riff 3
My american dream
(NO CHORD)
But it won't mean a f***ing thing
CHORUS
REPEAT CHORUS PROGRESSION UNTILL THE END

Important: The song above is NOT stored on the Chordie server. The original song is hosted at www.xguitar.com. Chordie works as a search engine and provides on-the-fly formatting. Chordie does not index songs against artists'/composers' will. To remove this song please click here.

Text color:
Chord color:
Chord grids: 
Font size:    
Page size: 

C F G
Rate #2 of 4 versions

Jango Player

Login - add to songbook

SHARE PAGE  



You need to log in to post comments