Guitar Tabs, Chords and Lyrics
Major upgrade!! After one year development the new version of Chordie is now online! Please give feedback.


Gay Bar   Electric Six

 
 e|---------------------------------------------------------------------------|
 B|---------------------------------------------------------------------------|
 G|------------0--------------------------------------------------------------|
 D|----------3---3------------------------------------------------------------|
 A|---5----5-------5-4-3----3-0-0-3-4-0---------------------------------------|
 E|---------------------------------------------------------------------------|

 


 


 Or you can play it like this:


 

 
 e|---------------------------------------------------------------------------|
 B|---------------------------------------------------------------------------|
 G|---------------------------------------------------------------------------|
 D|----------3-5-3------------------------------------------------------------|
 A|---5----5-------5-4-3----3-0-0-3-4-0---------------------------------------|
 E|---------------------------------------------------------------------------|

 


 


 


 First solo base


 

 
 e|---------------------------------------|------------------------------------|
 B|---------------------------------------|------------------------------------|
 G|---------------------------------------|------------------------------------|
 D|--7----7-7-7-7-7-5------5-5-5-5---5-6--|---Keep doing this------------------|
 A|--5----5-5-5-5-5-3------3-3-3-3-0-3-4--|------------------------------------|
 E|---------------------------------------|------------------------------------|

 


 


 The second solo base is only D5 and C5 chords, without other details.


 


 First solo. i guess it´s like this


 rb b rb


 

 
 e|----------------------------------------|
 B|---8----8-(10)-8-8----8-10-(10)-8\6-----|
 G|---7----7-(9)--9-7----7-9--(9)--9\7-----|
 D|----------------------------------------|
 A|----------------------------------------|
 E|----------------------------------------|

 


 


 rb = a whole tone bend, pick and release in that fret


 b = whole tone bend in both notes


 


 


 Second solo. I´m not sure too


 [b]  

 
 e|---------------|--------|------------------|
 B|----------6----|--O--/--|----------6-8-----|
 G|--5---5-7---7~-|----/---|--5---5-7---------|
 D|---------------|---/----|------------------|
 A|---------------|--/--O--|------------------|
 E|---------------|--------|------------------|

 


 


 [b] [b] [b]  

 
 e|---------------------------------------------------------------------------|
 B|--------13-13------13-13------13-13-13-13-13-13----------------------------|
 G|---12---------12---------12---12-12-12-12-12-12----------------------------|
 D|---------------------------------------------------------------------------|
 A|---------------------------------------------------------------------------|
 E|---------------------------------------------------------------------------|

 


 | |


 | b b b |


 

 
 e|--------13-13------13-13------13-13-13-13-13-13----------------------------|
 B|---13---------13---------13---13-13-13-13-13-13----------------------------|
 G|---------------------------------------------------------------------------| Second guitar
 D|---------------------------------------------------------------------------|
 A|---------------------------------------------------------------------------|
 E|---------------------------------------------------------------------------|


Important: The song above is NOT stored on the Chordie server. The original song is hosted at www.xguitar.com. Chordie works as a search engine and provides on-the-fly formatting. Chordie does not index songs against artists'/composers' will. To remove this song please click here.

This song is displayed as text-only. Transposing and tuning is only available for chordpro-songs.
Rate #0 of 3 versions

Jango Player

Login - add to songbook

SHARE PAGE  




You need to log in to post comments